  0
SECTION
  2
HEADER
  9
$ACADVER
  1
AC1015
  9
$ACADMAINTVER
 70
     6
  9
$DWGCODEPAGE
  3
ANSI_1254
  9
$INSBASE
 10
0.0
 20
0.0
 30
0.0
  9
$EXTMIN
 10
0.0
 20
0.0
 30
0.0
  9
$EXTMAX
 10
279.4
 20
215.9
 30
0.0
  9
$LIMMIN
 10
0.0
 20
0.0
  9
$LIMMAX
 10
279.4
 20
215.9
  9
$ORTHOMODE
 70
     0
  9
$REGENMODE
 70
     1
  9
$FILLMODE
 70
     1
  9
$QTEXTMODE
 70
     0
  9
$MIRRTEXT
 70
     1
  9
$LTSCALE
 40
1.0
  9
$ATTMODE
 70
     1
  9
$TEXTSIZE
 40
3.5
  9
$TRACEWID
 40
1.0
  9
$TEXTSTYLE
  7
Standard
  9
$CLAYER
  8
0
  9
$CELTYPE
  6
ByLayer
  9
$CECOLOR
 62
   256
  9
$CELTSCALE
 40
1.0
  9
$DISPSILH
 70
     0
  9
$DIMSCALE
 40
1.0
  9
$DIMASZ
 40
3.5
  9
$DIMEXO
 40
1.0
  9
$DIMDLI
 40
3.75
  9
$DIMRND
 40
0.0
  9
$DIMDLE
 40
0.0
  9
$DIMEXE
 40
1.0
  9
$DIMTP
 40
0.0
  9
$DIMTM
 40
0.0
  9
$DIMTXT
 40
3.5
  9
$DIMCEN
 40
2.5
  9
$DIMTSZ
 40
0.0
  9
$DIMTOL
 70
     0
  9
$DIMLIM
 70
     0
  9
$DIMTIH
 70
     1
  9
$DIMTOH
 70
     1
  9
$DIMSE1
 70
     0
  9
$DIMSE2
 70
     0
  9
$DIMTAD
 70
     1
  9
$DIMZIN
 70
     0
  9
$DIMBLK
  1

  9
$DIMASO
 70
     1
  9
$DIMSHO
 70
     1
  9
$DIMPOST
  1

  9
$DIMAPOST
  1

  9
$DIMALT
 70
     0
  9
$DIMALTD
 70
     3
  9
$DIMALTF
 40
0.0393700787
  9
$DIMLFAC
 40
1.0
  9
$DIMTOFL
 70
     1
  9
$DIMTVP
 40
0.0
  9
$DIMTIX
 70
     0
  9
$DIMSOXD
 70
     0
  9
$DIMSAH
 70
     0
  9
$DIMBLK1
  1

  9
$DIMBLK2
  1

  9
$DIMSTYLE
  2
ISO-25
  9
$DIMCLRD
 70
     0
  9
$DIMCLRE
 70
     0
  9
$DIMCLRT
 70
     0
  9
$DIMTFAC
 40
1.0
  9
$DIMGAP
 40
1.524
  9
$DIMJUST
 70
     0
  9
$DIMSD1
 70
     0
  9
$DIMSD2
 70
     0
  9
$DIMTOLJ
 70
     0
  9
$DIMTZIN
 70
     0
  9
$DIMALTZ
 70
     0
  9
$DIMALTTZ
 70
     0
  9
$DIMUPT
 70
     0
  9
$DIMDEC
 70
     2
  9
$DIMTDEC
 70
     2
  9
$DIMALTU
 70
     2
  9
$DIMALTTD
 70
     3
  9
$DIMTXSTY
  7
Standard
  9
$DIMAUNIT
 70
     0
  9
$DIMADEC
 70
     2
  9
$DIMALTRND
 40
0.0
  9
$DIMAZIN
 70
     0
  9
$DIMDSEP
 70
    44
  9
$DIMATFIT
 70
     3
  9
$DIMFRAC
 70
     0
  9
$DIMLDRBLK
  1

  9
$DIMLUNIT
 70
     2
  9
$DIMLWD
 70
    -2
  9
$DIMLWE
 70
    -2
  9
$DIMTMOVE
 70
     0
  9
$LUNITS
 70
     2
  9
$LUPREC
 70
     2
  9
$SKETCHINC
 40
1.0
  9
$FILLETRAD
 40
10.0
  9
$AUNITS
 70
     0
  9
$AUPREC
 70
     2
  9
$MENU
  1
.
  9
$ELEVATION
 40
0.0
  9
$PELEVATION
 40
0.0
  9
$THICKNESS
 40
0.0
  9
$LIMCHECK
 70
     0
  9
$CHAMFERA
 40
0.0
  9
$CHAMFERB
 40
0.0
  9
$CHAMFERC
 40
0.0
  9
$CHAMFERD
 40
0.0
  9
$SKPOLY
 70
     0
  9
$TDCREATE
 40
2459741.592469757
  9
$TDUCREATE
 40
2459741.467469757
  9
$TDUPDATE
 40
2459741.592471713
  9
$TDUUPDATE
 40
2459741.467471713
  9
$TDINDWG
 40
0.0000000116
  9
$TDUSRTIMER
 40
0.0000000116
  9
$USRTIMER
 70
     1
  9
$ANGBASE
 50
0.0
  9
$ANGDIR
 70
     0
  9
$PDMODE
 70
     0
  9
$PDSIZE
 40
-1.0
  9
$PLINEWID
 40
0.0
  9
$SPLFRAME
 70
     0
  9
$SPLINETYPE
 70
     6
  9
$SPLINESEGS
 70
     8
  9
$HANDSEED
  5
162
  9
$SURFTAB1
 70
     6
  9
$SURFTAB2
 70
     6
  9
$SURFTYPE
 70
     6
  9
$SURFU
 70
     6
  9
$SURFV
 70
     6
  9
$UCSBASE
  2

  9
$UCSNAME
  2

  9
$UCSORG
 10
0.0
 20
0.0
 30
0.0
  9
$UCSXDIR
 10
1.0
 20
0.0
 30
0.0
  9
$UCSYDIR
 10
0.0
 20
1.0
 30
0.0
  9
$UCSORTHOREF
  2

  9
$UCSORTHOVIEW
 70
     0
  9
$UCSORGTOP
 10
0.0
 20
0.0
 30
0.0
  9
$UCSORGBOTTOM
 10
0.0
 20
0.0
 30
0.0
  9
$UCSORGLEFT
 10
0.0
 20
0.0
 30
0.0
  9
$UCSORGRIGHT
 10
0.0
 20
0.0
 30
0.0
  9
$UCSORGFRONT
 10
0.0
 20
0.0
 30
0.0
  9
$UCSORGBACK
 10
0.0
 20
0.0
 30
0.0
  9
$PUCSBASE
  2

  9
$PUCSNAME
  2

  9
$PUCSORG
 10
0.0
 20
0.0
 30
0.0
  9
$PUCSXDIR
 10
1.0
 20
0.0
 30
0.0
  9
$PUCSYDIR
 10
0.0
 20
1.0
 30
0.0
  9
$PUCSORTHOREF
  2

  9
$PUCSORTHOVIEW
 70
     0
  9
$PUCSORGTOP
 10
0.0
 20
0.0
 30
0.0
  9
$PUCSORGBOTTOM
 10
0.0
 20
0.0
 30
0.0
  9
$PUCSORGLEFT
 10
0.0
 20
0.0
 30
0.0
  9
$PUCSORGRIGHT
 10
0.0
 20
0.0
 30
0.0
  9
$PUCSORGFRONT
 10
0.0
 20
0.0
 30
0.0
  9
$PUCSORGBACK
 10
0.0
 20
0.0
 30
0.0
  9
$USERI1
 70
     0
  9
$USERI2
 70
     0
  9
$USERI3
 70
     0
  9
$USERI4
 70
     0
  9
$USERI5
 70
     0
  9
$USERR1
 40
0.0
  9
$USERR2
 40
0.0
  9
$USERR3
 40
0.0
  9
$USERR4
 40
0.0
  9
$USERR5
 40
0.0
  9
$WORLDVIEW
 70
     1
  9
$SHADEDGE
 70
     3
  9
$SHADEDIF
 70
    70
  9
$TILEMODE
 70
     1
  9
$MAXACTVP
 70
    64
  9
$PINSBASE
 10
0.0
 20
0.0
 30
0.0
  9
$PLIMCHECK
 70
     0
  9
$PEXTMIN
 10
1.0000000000E+20
 20
1.0000000000E+20
 30
1.0000000000E+20
  9
$PEXTMAX
 10
-1.0000000000E+20
 20
-1.0000000000E+20
 30
-1.0000000000E+20
  9
$PLIMMIN
 10
0.0
 20
0.0
  9
$PLIMMAX
 10
420.0
 20
297.0
  9
$UNITMODE
 70
     0
  9
$VISRETAIN
 70
     1
  9
$PLINEGEN
 70
     0
  9
$PSLTSCALE
 70
     1
  9
$TREEDEPTH
 70
  3020
  9
$CMLSTYLE
  2
Standard
  9
$CMLJUST
 70
     0
  9
$CMLSCALE
 40
20.0
  9
$PROXYGRAPHICS
 70
     1
  9
$MEASUREMENT
 70
     1
  9
$CELWEIGHT
370
    -1
  9
$ENDCAPS
280
     0
  9
$JOINSTYLE
280
     0
  9
$LWDISPLAY
290
     1
  9
$INSUNITS
 70
     4
  9
$HYPERLINKBASE
  1

  9
$STYLESHEET
  1

  9
$XEDIT
290
     1
  9
$CEPSNTYPE
380
     0
  9
$PSTYLEMODE
290
     1
  9
$FINGERPRINTGUID
  2
{e77ccaf4-b154-4213-ae2e-8202b93e777f}
  9
$VERSIONGUID
  2
{FAEB1C32-E019-11D5-929B-00C0DF256EC4}
  9
$EXTNAMES
290
     1
  9
$PSVPSCALE
 40
0.0
  9
$OLESTARTUP
290
     0
  0
ENDSEC
  0
SECTION
  2
CLASSES
  0
CLASS
  1
ACDBDICTIONARYWDFLT
  2
AcDbDictionaryWithDefault
  3
ObjectDBX Classes
 90
        0
280
     0
281
     0
  0
CLASS
  1
VISUALSTYLE
  2
AcDbVisualStyle
  3
ObjectDBX Classes
 90
     4095
280
     0
281
     0
  0
CLASS
  1
MATERIAL
  2
AcDbMaterial
  3
ObjectDBX Classes
 90
     1153
280
     0
281
     0
  0
CLASS
  1
SCALE
  2
AcDbScale
  3
ObjectDBX Classes
 90
     1153
280
     0
281
     0
  0
CLASS
  1
TABLESTYLE
  2
AcDbTableStyle
  3
ObjectDBX Classes
 90
     4095
280
     0
281
     0
  0
CLASS
  1
MLEADERSTYLE
  2
AcDbMLeaderStyle
  3
ACDB_MLEADERSTYLE_CLASS
 90
     4095
280
     0
281
     0
  0
CLASS
  1
SUN
  2
AcDbSun
  3
SCENEOE
 90
     1153
280
     0
281
     0
  0
CLASS
  1
ACDBPLACEHOLDER
  2
AcDbPlaceHolder
  3
ObjectDBX Classes
 90
        0
280
     0
281
     0
  0
CLASS
  1
LAYOUT
  2
AcDbLayout
  3
ObjectDBX Classes
 90
        0
280
     0
281
     0
  0
ENDSEC
  0
SECTION
  2
TABLES
  0
TABLE
  2
VPORT
  5
8
330
0
100
AcDbSymbolTable
 70
     1
  0
VPORT
  5
29
330
8
100
AcDbSymbolTableRecord
100
AcDbViewportTableRecord
  2
*Active
 70
     0
 10
0.0
 20
0.0
 11
1.0
 21
1.0
 12
139.7
 22
107.95
 13
0.0
 23
0.0
 14
10.0
 24
10.0
 15
10.0
 25
10.0
 16
0.0
 26
0.0
 36
1.0
 17
0.0
 27
0.0
 37
0.0
 40
215.9
 41
1.2941176471
 42
50.0
 43
0.0
 44
0.0
 50
0.0
 51
0.0
 71
     0
 72
  2000
 73
     1
 74
     3
 75
     0
 76
     0
 77
     0
 78
     0
281
     0
 65
     1
110
0.0
120
0.0
130
0.0
111
1.0
121
0.0
131
0.0
112
0.0
122
1.0
132
0.0
 79
     0
146
0.0
  0
ENDTAB
  0
TABLE
  2
LTYPE
  5
5
330
0
100
AcDbSymbolTable
 70
     6
  0
LTYPE
  5
14
330
5
100
AcDbSymbolTableRecord
100
AcDbLinetypeTableRecord
  2
ByBlock
 70
     0
  3

 72
    65
 73
     0
 40
0.0
  0
LTYPE
  5
15
330
5
100
AcDbSymbolTableRecord
100
AcDbLinetypeTableRecord
  2
ByLayer
 70
     0
  3

 72
    65
 73
     0
 40
0.0
  0
LTYPE
  5
16
330
5
100
AcDbSymbolTableRecord
100
AcDbLinetypeTableRecord
  2
Continuous
 70
     0
  3
Solid line
 72
    65
 73
     0
 40
0.0
  0
LTYPE
  5
6E
330
5
100
AcDbSymbolTableRecord
100
AcDbLinetypeTableRecord
  2
HIDDEN
 70
     0
  3
Hidden __ __ __ __ __ __ __ __ __ __ __ __ __ __
 72
    65
 73
     2
 40
1.905
 49
1.27
 74
     0
 49
-0.635
 74
     0
  0
LTYPE
  5
6F
330
5
100
AcDbSymbolTableRecord
100
AcDbLinetypeTableRecord
  2
PHANTOM
 70
     0
  3
Phantom ______  __  __  ______  __  __  ______
 72
    65
 73
     6
 40
12.7
 49
6.35
 74
     0
 49
-1.27
 74
     0
 49
1.27
 74
     0
 49
-1.27
 74
     0
 49
1.27
 74
     0
 49
-1.27
 74
     0
  0
LTYPE
  5
70
330
5
100
AcDbSymbolTableRecord
100
AcDbLinetypeTableRecord
  2
CENTER
 70
     0
  3
Center ____ _ ____ _ ____ _ ____ _ ____ _ ____
 72
    65
 73
     4
 40
10.16
 49
6.35
 74
     0
 49
-1.27
 74
     0
 49
1.27
 74
     0
 49
-1.27
 74
     0
  0
LTYPE
  5
71
330
5
100
AcDbSymbolTableRecord
100
AcDbLinetypeTableRecord
  2
CENTERX2
 70
     0
  3
Center (2x) ________  __  ________  __  _____
 72
    65
 73
     4
 40
20.32
 49
12.7
 74
     0
 49
-2.54
 74
     0
 49
2.54
 74
     0
 49
-2.54
 74
     0
  0
LTYPE
  5
72
330
5
100
AcDbSymbolTableRecord
100
AcDbLinetypeTableRecord
  2
DOT2
 70
     0
  3
Dot (.5x) ........................................
 72
    65
 73
     2
 40
0.635
 49
0.0
 74
     0
 49
-0.635
 74
     0
  0
ENDTAB
  0
TABLE
  2
LAYER
  5
2
330
0
100
AcDbSymbolTable
 70
    17
  0
LAYER
  5
10
330
2
100
AcDbSymbolTableRecord
100
AcDbLayerTableRecord
  2
0
 70
     0
 62
     7
  6
Continuous
370
    -3
390
F
  0
LAYER
  5
73
330
2
100
AcDbSymbolTableRecord
100
AcDbLayerTableRecord
  2
FORMAT
 70
     0
 62
     7
  6
Continuous
370
    -3
390
F
  0
LAYER
  5
74
330
2
100
AcDbSymbolTableRecord
100
AcDbLayerTableRecord
  2
YARDIMCI_GEOMETRI
 70
     0
 62
    -6
  6
Continuous
290
     0
370
    -3
390
F
  0
LAYER
  5
75
330
2
100
AcDbSymbolTableRecord
100
AcDbLayerTableRecord
  2
SAYFA_CERCEVESI
 70
     0
 62
     7
  6
Continuous
370
    25
390
F
  0
LAYER
  5
76
330
2
100
AcDbSymbolTableRecord
100
AcDbLayerTableRecord
  2
ANTET
 70
     0
 62
     7
  6
Continuous
370
    -3
390
F
  0
LAYER
  5
77
330
2
100
AcDbSymbolTableRecord
100
AcDbLayerTableRecord
  2
OLCU
 70
     0
 62
   150
  6
Continuous
370
    -3
390
F
  0
LAYER
  5
78
330
2
100
AcDbSymbolTableRecord
100
AcDbLayerTableRecord
  2
METIN
 70
     0
 62
    96
  6
Continuous
370
    -3
390
F
  0
LAYER
  5
79
330
2
100
AcDbSymbolTableRecord
100
AcDbLayerTableRecord
  2
BALON
 70
     0
 62
     5
  6
Continuous
370
    -3
390
F
  0
LAYER
  5
7A
330
2
100
AcDbSymbolTableRecord
100
AcDbLayerTableRecord
  2
VURGU
 70
     0
 62
     7
  6
Continuous
370
    -3
390
F
  0
LAYER
  5
7B
330
2
100
AcDbSymbolTableRecord
100
AcDbLayerTableRecord
  2
SILIK
 70
     0
 62
     7
  6
Continuous
370
    -3
390
F
  0
LAYER
  5
7C
330
2
100
AcDbSymbolTableRecord
100
AcDbLayerTableRecord
  2
MODEL
 70
     0
 62
     7
  6
Continuous
370
    -3
390
F
  0
LAYER
  5
7D
330
2
100
AcDbSymbolTableRecord
100
AcDbLayerTableRecord
  2
DETAYLANDıRMA
 70
     0
 62
   190
  6
Continuous
370
    -3
390
F
  0
LAYER
  5
7E
330
2
100
AcDbSymbolTableRecord
100
AcDbLayerTableRecord
  2
TOLERANS
 70
     0
 62
   230
  6
Continuous
370
    -3
390
F
  0
LAYER
  5
7F
330
2
100
AcDbSymbolTableRecord
100
AcDbLayerTableRecord
  2
MERKEZ_CIZGILERI
 70
     0
 62
    30
  6
Continuous
370
    -3
390
F
  0
LAYER
  5
80
330
2
100
AcDbSymbolTableRecord
100
AcDbLayerTableRecord
  2
KESIT-DETAY_CIZGILERI
 70
     0
 62
     7
  6
Continuous
370
    -3
390
F
  0
LAYER
  5
81
330
2
100
AcDbSymbolTableRecord
100
AcDbLayerTableRecord
  2
\U+041E\U+0421\U+0415\U+0412\U+042B\U+0415
 70
     0
 62
     7
  6
Continuous
370
    -3
390
F
  0
LAYER
  5
82
330
2
100
AcDbSymbolTableRecord
100
AcDbLayerTableRecord
  2
\U+0412\U+041E\U+0414\U+042F\U+041D\U+042B\U+0415_\U+0417\U+041D\U+0410\U+041A\U+0418
 70
     0
 62
    11
  6
Continuous
370
    -3
390
F
  0
ENDTAB
  0
TABLE
  2
STYLE
  5
3
330
0
100
AcDbSymbolTable
 70
     1
  0
STYLE
  5
11
330
3
100
AcDbSymbolTableRecord
100
AcDbTextStyleTableRecord
  2
Standard
 70
     0
 40
0.0
 41
1.0
 50
0.0
 71
     0
 42
3.5
  3
txt
  4

  0
ENDTAB
  0
TABLE
  2
VIEW
  5
6
330
0
100
AcDbSymbolTable
 70
     0
  0
ENDTAB
  0
TABLE
  2
UCS
  5
7
330
0
100
AcDbSymbolTable
 70
     0
  0
ENDTAB
  0
TABLE
  2
APPID
  5
9
330
0
100
AcDbSymbolTable
 70
     1
  0
APPID
  5
12
330
9
100
AcDbSymbolTableRecord
100
AcDbRegAppTableRecord
  2
ACAD
 70
     0
  0
ENDTAB
  0
TABLE
  2
DIMSTYLE
  5
A
330
0
100
AcDbSymbolTable
 70
     1
100
AcDbDimStyleTable
  0
DIMSTYLE
105
27
330
A
100
AcDbSymbolTableRecord
100
AcDbDimStyleTableRecord
  2
ISO-25
 70
     0
 41
2.5
 42
0.625
 43
3.75
 44
1.25
 73
     0
 74
     0
 77
     1
 78
     8
140
2.5
141
2.5
143
0.0393700787
147
0.625
171
     3
172
     1
178
     0
271
     2
272
     2
274
     3
278
    44
283
     0
284
     8
340
11
  0
ENDTAB
  0
TABLE
  2
BLOCK_RECORD
  5
1
330
0
100
AcDbSymbolTable
 70
     9
  0
BLOCK_RECORD
  5
1F
330
1
100
AcDbSymbolTableRecord
100
AcDbBlockTableRecord
  2
*Model_Space
340
22
  0
BLOCK_RECORD
  5
1B
330
1
100
AcDbSymbolTableRecord
100
AcDbBlockTableRecord
  2
*Paper_Space
340
1E
  0
BLOCK_RECORD
  5
23
330
1
100
AcDbSymbolTableRecord
100
AcDbBlockTableRecord
  2
*Paper_Space0
340
26
  0
BLOCK_RECORD
  5
97
330
1
100
AcDbSymbolTableRecord
100
AcDbBlockTableRecord
  2
SW_CENTERMARKSYMBOL_0
340
0
102
{BLKREFS
331
A2
102
}
  0
BLOCK_RECORD
  5
A3
330
1
100
AcDbSymbolTableRecord
100
AcDbBlockTableRecord
  2
SW_CENTERMARKSYMBOL_1
340
0
102
{BLKREFS
331
AE
102
}
  0
BLOCK_RECORD
  5
AF
330
1
100
AcDbSymbolTableRecord
100
AcDbBlockTableRecord
  2
SW_CENTERMARKSYMBOL_2
340
0
102
{BLKREFS
331
BA
102
}
  0
BLOCK_RECORD
  5
BB
330
1
100
AcDbSymbolTableRecord
100
AcDbBlockTableRecord
  2
SW_CENTERMARKSYMBOL_3
340
0
102
{BLKREFS
331
C6
102
}
  0
BLOCK_RECORD
  5
C7
330
1
100
AcDbSymbolTableRecord
100
AcDbBlockTableRecord
  2
SW_CENTERMARKSYMBOL_4
340
0
102
{BLKREFS
331
D2
102
}
  0
BLOCK_RECORD
  5
D3
330
1
100
AcDbSymbolTableRecord
100
AcDbBlockTableRecord
  2
SW_CENTERMARKSYMBOL_5
340
0
102
{BLKREFS
331
DE
102
}
  0
BLOCK_RECORD
  5
DF
330
1
100
AcDbSymbolTableRecord
100
AcDbBlockTableRecord
  2
SW_CENTERMARKSYMBOL_6
340
0
102
{BLKREFS
331
EA
102
}
  0
BLOCK_RECORD
  5
EB
330
1
100
AcDbSymbolTableRecord
100
AcDbBlockTableRecord
  2
SW_CENTERMARKSYMBOL_7
340
0
102
{BLKREFS
331
F6
102
}
  0
ENDTAB
  0
ENDSEC
  0
SECTION
  2
BLOCKS
  0
BLOCK
  5
20
330
1F
100
AcDbEntity
  8
0
100
AcDbBlockBegin
  2
*Model_Space
 70
     0
 10
0.0
 20
0.0
 30
0.0
  3
*Model_Space
  1

  0
ENDBLK
  5
21
330
1F
100
AcDbEntity
  8
0
100
AcDbBlockEnd
  0
BLOCK
  5
1C
330
1B
100
AcDbEntity
 67
     1
  8
0
100
AcDbBlockBegin
  2
*Paper_Space
 70
     0
 10
0.0
 20
0.0
 30
0.0
  3
*Paper_Space
  1

  0
ENDBLK
  5
1D
330
1B
100
AcDbEntity
 67
     1
  8
0
100
AcDbBlockEnd
  0
BLOCK
  5
24
330
23
100
AcDbEntity
  8
0
100
AcDbBlockBegin
  2
*Paper_Space0
 70
     0
 10
0.0
 20
0.0
 30
0.0
  3
*Paper_Space0
  1

  0
ENDBLK
  5
25
330
23
100
AcDbEntity
  8
0
100
AcDbBlockEnd
  0
BLOCK
  5
98
330
97
100
AcDbEntity
  8
0
100
AcDbBlockBegin
  2
SW_CENTERMARKSYMBOL_0
 70
     0
 10
0.0
 20
0.0
 30
0.0
  3
SW_CENTERMARKSYMBOL_0
  1

  0
LINE
  5
9A
330
97
100
AcDbEntity
  8
FORMAT
 62
     0
100
AcDbLine
 10
0.0
 20
0.0
 30
0.0
 11
0.0
 21
2.5
 31
0.0
  0
LINE
  5
9B
330
97
100
AcDbEntity
  8
FORMAT
 62
     0
100
AcDbLine
 10
0.0
 20
0.0
 30
0.0
 11
-2.5
 21
0.0
 31
0.0
  0
LINE
  5
9C
330
97
100
AcDbEntity
  8
FORMAT
 62
     0
100
AcDbLine
 10
0.0
 20
0.0
 30
0.0
 11
0.0
 21
-2.5
 31
0.0
  0
LINE
  5
9D
330
97
100
AcDbEntity
  8
FORMAT
 62
     0
100
AcDbLine
 10
0.0
 20
0.0
 30
0.0
 11
2.5
 21
0.0
 31
0.0
  0
LINE
  5
9E
330
97
100
AcDbEntity
  8
FORMAT
 62
     0
100
AcDbLine
 10
0.0
 20
5.0
 30
0.0
 11
0.0
 21
114.5
 31
0.0
  0
LINE
  5
9F
330
97
100
AcDbEntity
  8
FORMAT
 62
     0
100
AcDbLine
 10
-5.0
 20
0.0
 30
0.0
 11
-114.5
 21
0.0
 31
0.0
  0
LINE
  5
A0
330
97
100
AcDbEntity
  8
FORMAT
 62
     0
100
AcDbLine
 10
0.0
 20
-5.0
 30
0.0
 11
0.0
 21
-114.5
 31
0.0
  0
LINE
  5
A1
330
97
100
AcDbEntity
  8
FORMAT
 62
     0
100
AcDbLine
 10
5.0
 20
0.0
 30
0.0
 11
114.5
 21
0.0
 31
0.0
  0
ENDBLK
  5
99
330
97
100
AcDbEntity
  8
0
100
AcDbBlockEnd
  0
BLOCK
  5
A4
330
A3
100
AcDbEntity
  8
0
100
AcDbBlockBegin
  2
SW_CENTERMARKSYMBOL_1
 70
     0
 10
0.0
 20
0.0
 30
0.0
  3
SW_CENTERMARKSYMBOL_1
  1

  0
LINE
  5
A6
330
A3
100
AcDbEntity
  8
FORMAT
 62
     0
100
AcDbLine
 10
0.0
 20
0.0
 30
0.0
 11
0.0
 21
2.5
 31
0.0
  0
LINE
  5
A7
330
A3
100
AcDbEntity
  8
FORMAT
 62
     0
100
AcDbLine
 10
0.0
 20
0.0
 30
0.0
 11
-2.5
 21
0.0
 31
0.0
  0
LINE
  5
A8
330
A3
100
AcDbEntity
  8
FORMAT
 62
     0
100
AcDbLine
 10
0.0
 20
0.0
 30
0.0
 11
0.0
 21
-2.5
 31
0.0
  0
LINE
  5
A9
330
A3
100
AcDbEntity
  8
FORMAT
 62
     0
100
AcDbLine
 10
0.0
 20
0.0
 30
0.0
 11
2.5
 21
0.0
 31
0.0
  0
LINE
  5
AA
330
A3
100
AcDbEntity
  8
FORMAT
 62
     0
100
AcDbLine
 10
0.0
 20
5.0
 30
0.0
 11
0.0
 21
11.5
 31
0.0
  0
LINE
  5
AB
330
A3
100
AcDbEntity
  8
FORMAT
 62
     0
100
AcDbLine
 10
-5.0
 20
0.0
 30
0.0
 11
-11.5
 21
0.0
 31
0.0
  0
LINE
  5
AC
330
A3
100
AcDbEntity
  8
FORMAT
 62
     0
100
AcDbLine
 10
0.0
 20
-5.0
 30
0.0
 11
0.0
 21
-11.5
 31
0.0
  0
LINE
  5
AD
330
A3
100
AcDbEntity
  8
FORMAT
 62
     0
100
AcDbLine
 10
5.0
 20
0.0
 30
0.0
 11
11.5
 21
0.0
 31
0.0
  0
ENDBLK
  5
A5
330
A3
100
AcDbEntity
  8
0
100
AcDbBlockEnd
  0
BLOCK
  5
B0
330
AF
100
AcDbEntity
  8
0
100
AcDbBlockBegin
  2
SW_CENTERMARKSYMBOL_2
 70
     0
 10
0.0
 20
0.0
 30
0.0
  3
SW_CENTERMARKSYMBOL_2
  1

  0
LINE
  5
B2
330
AF
100
AcDbEntity
  8
FORMAT
 62
     0
100
AcDbLine
 10
0.0
 20
0.0
 30
0.0
 11
0.0
 21
2.5
 31
0.0
  0
LINE
  5
B3
330
AF
100
AcDbEntity
  8
FORMAT
 62
     0
100
AcDbLine
 10
0.0
 20
0.0
 30
0.0
 11
-2.5
 21
0.0
 31
0.0
  0
LINE
  5
B4
330
AF
100
AcDbEntity
  8
FORMAT
 62
     0
100
AcDbLine
 10
0.0
 20
0.0
 30
0.0
 11
0.0
 21
-2.5
 31
0.0
  0
LINE
  5
B5
330
AF
100
AcDbEntity
  8
FORMAT
 62
     0
100
AcDbLine
 10
0.0
 20
0.0
 30
0.0
 11
2.5
 21
0.0
 31
0.0
  0
LINE
  5
B6
330
AF
100
AcDbEntity
  8
FORMAT
 62
     0
100
AcDbLine
 10
0.0
 20
5.0
 30
0.0
 11
0.0
 21
11.5
 31
0.0
  0
LINE
  5
B7
330
AF
100
AcDbEntity
  8
FORMAT
 62
     0
100
AcDbLine
 10
-5.0
 20
0.0
 30
0.0
 11
-11.5
 21
0.0
 31
0.0
  0
LINE
  5
B8
330
AF
100
AcDbEntity
  8
FORMAT
 62
     0
100
AcDbLine
 10
0.0
 20
-5.0
 30
0.0
 11
0.0
 21
-11.5
 31
0.0
  0
LINE
  5
B9
330
AF
100
AcDbEntity
  8
FORMAT
 62
     0
100
AcDbLine
 10
5.0
 20
0.0
 30
0.0
 11
11.5
 21
0.0
 31
0.0
  0
ENDBLK
  5
B1
330
AF
100
AcDbEntity
  8
0
100
AcDbBlockEnd
  0
BLOCK
  5
BC
330
BB
100
AcDbEntity
  8
0
100
AcDbBlockBegin
  2
SW_CENTERMARKSYMBOL_3
 70
     0
 10
0.0
 20
0.0
 30
0.0
  3
SW_CENTERMARKSYMBOL_3
  1

  0
LINE
  5
BE
330
BB
100
AcDbEntity
  8
FORMAT
 62
     0
100
AcDbLine
 10
0.0
 20
0.0
 30
0.0
 11
0.0
 21
2.5
 31
0.0
  0
LINE
  5
BF
330
BB
100
AcDbEntity
  8
FORMAT
 62
     0
100
AcDbLine
 10
0.0
 20
0.0
 30
0.0
 11
-2.5
 21
0.0
 31
0.0
  0
LINE
  5
C0
330
BB
100
AcDbEntity
  8
FORMAT
 62
     0
100
AcDbLine
 10
0.0
 20
0.0
 30
0.0
 11
0.0
 21
-2.5
 31
0.0
  0
LINE
  5
C1
330
BB
100
AcDbEntity
  8
FORMAT
 62
     0
100
AcDbLine
 10
0.0
 20
0.0
 30
0.0
 11
2.5
 21
0.0
 31
0.0
  0
LINE
  5
C2
330
BB
100
AcDbEntity
  8
FORMAT
 62
     0
100
AcDbLine
 10
0.0
 20
5.0
 30
0.0
 11
0.0
 21
11.5
 31
0.0
  0
LINE
  5
C3
330
BB
100
AcDbEntity
  8
FORMAT
 62
     0
100
AcDbLine
 10
-5.0
 20
0.0
 30
0.0
 11
-11.5
 21
0.0
 31
0.0
  0
LINE
  5
C4
330
BB
100
AcDbEntity
  8
FORMAT
 62
     0
100
AcDbLine
 10
0.0
 20
-5.0
 30
0.0
 11
0.0
 21
-11.5
 31
0.0
  0
LINE
  5
C5
330
BB
100
AcDbEntity
  8
FORMAT
 62
     0
100
AcDbLine
 10
5.0
 20
0.0
 30
0.0
 11
11.5
 21
0.0
 31
0.0
  0
ENDBLK
  5
BD
330
BB
100
AcDbEntity
  8
0
100
AcDbBlockEnd
  0
BLOCK
  5
C8
330
C7
100
AcDbEntity
  8
0
100
AcDbBlockBegin
  2
SW_CENTERMARKSYMBOL_4
 70
     0
 10
0.0
 20
0.0
 30
0.0
  3
SW_CENTERMARKSYMBOL_4
  1

  0
LINE
  5
CA
330
C7
100
AcDbEntity
  8
FORMAT
 62
     0
100
AcDbLine
 10
0.0
 20
0.0
 30
0.0
 11
0.0
 21
2.5
 31
0.0
  0
LINE
  5
CB
330
C7
100
AcDbEntity
  8
FORMAT
 62
     0
100
AcDbLine
 10
0.0
 20
0.0
 30
0.0
 11
-2.5
 21
0.0
 31
0.0
  0
LINE
  5
CC
330
C7
100
AcDbEntity
  8
FORMAT
 62
     0
100
AcDbLine
 10
0.0
 20
0.0
 30
0.0
 11
0.0
 21
-2.5
 31
0.0
  0
LINE
  5
CD
330
C7
100
AcDbEntity
  8
FORMAT
 62
     0
100
AcDbLine
 10
0.0
 20
0.0
 30
0.0
 11
2.5
 21
0.0
 31
0.0
  0
LINE
  5
CE
330
C7
100
AcDbEntity
  8
FORMAT
 62
     0
100
AcDbLine
 10
0.0
 20
5.0
 30
0.0
 11
0.0
 21
11.5
 31
0.0
  0
LINE
  5
CF
330
C7
100
AcDbEntity
  8
FORMAT
 62
     0
100
AcDbLine
 10
-5.0
 20
0.0
 30
0.0
 11
-11.5
 21
0.0
 31
0.0
  0
LINE
  5
D0
330
C7
100
AcDbEntity
  8
FORMAT
 62
     0
100
AcDbLine
 10
0.0
 20
-5.0
 30
0.0
 11
0.0
 21
-11.5
 31
0.0
  0
LINE
  5
D1
330
C7
100
AcDbEntity
  8
FORMAT
 62
     0
100
AcDbLine
 10
5.0
 20
0.0
 30
0.0
 11
11.5
 21
0.0
 31
0.0
  0
ENDBLK
  5
C9
330
C7
100
AcDbEntity
  8
0
100
AcDbBlockEnd
  0
BLOCK
  5
D4
330
D3
100
AcDbEntity
  8
0
100
AcDbBlockBegin
  2
SW_CENTERMARKSYMBOL_5
 70
     0
 10
0.0
 20
0.0
 30
0.0
  3
SW_CENTERMARKSYMBOL_5
  1

  0
LINE
  5
D6
330
D3
100
AcDbEntity
  8
FORMAT
 62
     0
100
AcDbLine
 10
0.0
 20
0.0
 30
0.0
 11
0.0
 21
2.5
 31
0.0
  0
LINE
  5
D7
330
D3
100
AcDbEntity
  8
FORMAT
 62
     0
100
AcDbLine
 10
0.0
 20
0.0
 30
0.0
 11
-2.5
 21
0.0
 31
0.0
  0
LINE
  5
D8
330
D3
100
AcDbEntity
  8
FORMAT
 62
     0
100
AcDbLine
 10
0.0
 20
0.0
 30
0.0
 11
0.0
 21
-2.5
 31
0.0
  0
LINE
  5
D9
330
D3
100
AcDbEntity
  8
FORMAT
 62
     0
100
AcDbLine
 10
0.0
 20
0.0
 30
0.0
 11
2.5
 21
0.0
 31
0.0
  0
LINE
  5
DA
330
D3
100
AcDbEntity
  8
FORMAT
 62
     0
100
AcDbLine
 10
0.0
 20
5.0
 30
0.0
 11
0.0
 21
12.5
 31
0.0
  0
LINE
  5
DB
330
D3
100
AcDbEntity
  8
FORMAT
 62
     0
100
AcDbLine
 10
-5.0
 20
0.0
 30
0.0
 11
-12.5
 21
0.0
 31
0.0
  0
LINE
  5
DC
330
D3
100
AcDbEntity
  8
FORMAT
 62
     0
100
AcDbLine
 10
0.0
 20
-5.0
 30
0.0
 11
0.0
 21
-12.5
 31
0.0
  0
LINE
  5
DD
330
D3
100
AcDbEntity
  8
FORMAT
 62
     0
100
AcDbLine
 10
5.0
 20
0.0
 30
0.0
 11
12.5
 21
0.0
 31
0.0
  0
ENDBLK
  5
D5
330
D3
100
AcDbEntity
  8
0
100
AcDbBlockEnd
  0
BLOCK
  5
E0
330
DF
100
AcDbEntity
  8
0
100
AcDbBlockBegin
  2
SW_CENTERMARKSYMBOL_6
 70
     0
 10
0.0
 20
0.0
 30
0.0
  3
SW_CENTERMARKSYMBOL_6
  1

  0
LINE
  5
E2
330
DF
100
AcDbEntity
  8
FORMAT
 62
     0
100
AcDbLine
 10
0.0
 20
0.0
 30
0.0
 11
0.0
 21
2.5
 31
0.0
  0
LINE
  5
E3
330
DF
100
AcDbEntity
  8
FORMAT
 62
     0
100
AcDbLine
 10
0.0
 20
0.0
 30
0.0
 11
-2.5
 21
0.0
 31
0.0
  0
LINE
  5
E4
330
DF
100
AcDbEntity
  8
FORMAT
 62
     0
100
AcDbLine
 10
0.0
 20
0.0
 30
0.0
 11
0.0
 21
-2.5
 31
0.0
  0
LINE
  5
E5
330
DF
100
AcDbEntity
  8
FORMAT
 62
     0
100
AcDbLine
 10
0.0
 20
0.0
 30
0.0
 11
2.5
 21
0.0
 31
0.0
  0
LINE
  5
E6
330
DF
100
AcDbEntity
  8
FORMAT
 62
     0
100
AcDbLine
 10
0.0
 20
5.0
 30
0.0
 11
0.0
 21
12.5
 31
0.0
  0
LINE
  5
E7
330
DF
100
AcDbEntity
  8
FORMAT
 62
     0
100
AcDbLine
 10
-5.0
 20
0.0
 30
0.0
 11
-12.5
 21
0.0
 31
0.0
  0
LINE
  5
E8
330
DF
100
AcDbEntity
  8
FORMAT
 62
     0
100
AcDbLine
 10
0.0
 20
-5.0
 30
0.0
 11
0.0
 21
-12.5
 31
0.0
  0
LINE
  5
E9
330
DF
100
AcDbEntity
  8
FORMAT
 62
     0
100
AcDbLine
 10
5.0
 20
0.0
 30
0.0
 11
12.5
 21
0.0
 31
0.0
  0
ENDBLK
  5
E1
330
DF
100
AcDbEntity
  8
0
100
AcDbBlockEnd
  0
BLOCK
  5
EC
330
EB
100
AcDbEntity
  8
0
100
AcDbBlockBegin
  2
SW_CENTERMARKSYMBOL_7
 70
     0
 10
0.0
 20
0.0
 30
0.0
  3
SW_CENTERMARKSYMBOL_7
  1

  0
LINE
  5
EE
330
EB
100
AcDbEntity
  8
FORMAT
 62
     0
100
AcDbLine
 10
0.0
 20
0.0
 30
0.0
 11
0.0
 21
2.5
 31
0.0
  0
LINE
  5
EF
330
EB
100
AcDbEntity
  8
FORMAT
 62
     0
100
AcDbLine
 10
0.0
 20
0.0
 30
0.0
 11
-2.5
 21
0.0
 31
0.0
  0
LINE
  5
F0
330
EB
100
AcDbEntity
  8
FORMAT
 62
     0
100
AcDbLine
 10
0.0
 20
0.0
 30
0.0
 11
0.0
 21
-2.5
 31
0.0
  0
LINE
  5
F1
330
EB
100
AcDbEntity
  8
FORMAT
 62
     0
100
AcDbLine
 10
0.0
 20
0.0
 30
0.0
 11
2.5
 21
0.0
 31
0.0
  0
LINE
  5
F2
330
EB
100
AcDbEntity
  8
FORMAT
 62
     0
100
AcDbLine
 10
0.0
 20
5.0
 30
0.0
 11
0.0
 21
12.5
 31
0.0
  0
LINE
  5
F3
330
EB
100
AcDbEntity
  8
FORMAT
 62
     0
100
AcDbLine
 10
-5.0
 20
0.0
 30
0.0
 11
-12.5
 21
0.0
 31
0.0
  0
LINE
  5
F4
330
EB
100
AcDbEntity
  8
FORMAT
 62
     0
100
AcDbLine
 10
0.0
 20
-5.0
 30
0.0
 11
0.0
 21
-12.5
 31
0.0
  0
LINE
  5
F5
330
EB
100
AcDbEntity
  8
FORMAT
 62
     0
100
AcDbLine
 10
5.0
 20
0.0
 30
0.0
 11
12.5
 21
0.0
 31
0.0
  0
ENDBLK
  5
ED
330
EB
100
AcDbEntity
  8
0
100
AcDbBlockEnd
  0
ENDSEC
  0
SECTION
  2
ENTITIES
  0
CIRCLE
  5
83
330
1F
100
AcDbEntity
  8
0
  6
Continuous
 62
     7
370
    25
100
AcDbCircle
 10
45.1105938204
 20
115.6909958732
 30
0.0
 40
9.999999999999993
  0
CIRCLE
  5
84
330
1F
100
AcDbEntity
  8
0
  6
Continuous
 62
     7
370
    25
100
AcDbCircle
 10
198.7502041272
 20
52.0513855664
 30
0.0
 40
9.999999999999972
  0
CIRCLE
  5
85
330
1F
100
AcDbEntity
  8
0
  6
Continuous
 62
     7
370
    25
100
AcDbCircle
 10
198.7502041272
 20
179.33060618
 30
0.0
 40
9.999999999999972
  0
CIRCLE
  5
86
330
1F
100
AcDbEntity
  8
0
  6
Continuous
 62
     7
370
    25
100
AcDbCircle
 10
135.1105938204
 20
205.6909958732
 30
0.0
 40
10.0
  0
CIRCLE
  5
87
330
1F
100
AcDbEntity
  8
0
  6
Continuous
 62
     7
370
    25
100
AcDbCircle
 10
135.1105938204
 20
115.6909958732
 30
0.0
 40
111.0
  0
CIRCLE
  5
88
330
1F
100
AcDbEntity
  8
0
  6
Continuous
 62
     7
370
    25
100
AcDbCircle
 10
135.1105938204
 20
115.6909958732
 30
0.0
 40
68.5
  0
CIRCLE
  5
89
330
1F
100
AcDbEntity
  8
0
  6
Continuous
 62
     7
370
    25
100
AcDbCircle
 10
135.1105938204
 20
25.6909958732
 30
0.0
 40
9.999999999999972
  0
CIRCLE
  5
8A
330
1F
100
AcDbEntity
  8
0
  6
Continuous
 62
     7
370
    25
100
AcDbCircle
 10
225.1105938204
 20
115.6909958732
 30
0.0
 40
10.0
  0
CIRCLE
  5
8B
330
1F
100
AcDbEntity
  8
0
  6
Continuous
 62
     7
370
    25
100
AcDbCircle
 10
71.4709835136
 20
52.0513855664
 30
0.0
 40
10.00000000000001
  0
CIRCLE
  5
8C
330
1F
100
AcDbEntity
  8
0
  6
Continuous
 62
     7
370
    25
100
AcDbCircle
 10
71.4709835136
 20
179.33060618
 30
0.0
 40
10.00000000000001
  0
CIRCLE
  5
8D
330
1F
100
AcDbEntity
  8
0
  6
Continuous
 62
     7
370
    25
100
AcDbCircle
 10
135.1105938204
 20
25.6909958732
 30
0.0
 40
8.999999999999972
  0
CIRCLE
  5
8E
330
1F
100
AcDbEntity
  8
0
  6
Continuous
 62
     7
370
    25
100
AcDbCircle
 10
135.1105938204
 20
115.6909958732
 30
0.0
 40
67.5
  0
CIRCLE
  5
8F
330
1F
100
AcDbEntity
  8
0
  6
Continuous
 62
     7
370
    25
100
AcDbCircle
 10
135.1105938204
 20
115.6909958732
 30
0.0
 40
112.0
  0
CIRCLE
  5
90
330
1F
100
AcDbEntity
  8
0
  6
Continuous
 62
     7
370
    25
100
AcDbCircle
 10
135.1105938204
 20
205.6909958732
 30
0.0
 40
9.0
  0
CIRCLE
  5
91
330
1F
100
AcDbEntity
  8
0
  6
Continuous
 62
     7
370
    25
100
AcDbCircle
 10
198.7502041272
 20
179.33060618
 30
0.0
 40
8.999999999999972
  0
CIRCLE
  5
92
330
1F
100
AcDbEntity
  8
0
  6
Continuous
 62
     7
370
    25
100
AcDbCircle
 10
71.4709835136
 20
179.33060618
 30
0.0
 40
9.000000000000014
  0
CIRCLE
  5
93
330
1F
100
AcDbEntity
  8
0
  6
Continuous
 62
     7
370
    25
100
AcDbCircle
 10
71.4709835136
 20
52.0513855664
 30
0.0
 40
9.000000000000014
  0
CIRCLE
  5
94
330
1F
100
AcDbEntity
  8
0
  6
Continuous
 62
     7
370
    25
100
AcDbCircle
 10
225.1105938204
 20
115.6909958732
 30
0.0
 40
9.0
  0
CIRCLE
  5
95
330
1F
100
AcDbEntity
  8
0
  6
Continuous
 62
     7
370
    25
100
AcDbCircle
 10
45.1105938204
 20
115.6909958732
 30
0.0
 40
8.999999999999993
  0
CIRCLE
  5
96
330
1F
100
AcDbEntity
  8
0
  6
Continuous
 62
     7
370
    25
100
AcDbCircle
 10
198.7502041272
 20
52.0513855664
 30
0.0
 40
8.999999999999972
  0
INSERT
  5
A2
330
1F
100
AcDbEntity
  8
FORMAT
 62
     7
100
AcDbBlockReference
  2
SW_CENTERMARKSYMBOL_0
 10
135.1105938204
 20
115.6909958732
 30
0.0
  0
INSERT
  5
AE
330
1F
100
AcDbEntity
  8
FORMAT
 62
     7
100
AcDbBlockReference
  2
SW_CENTERMARKSYMBOL_1
 10
135.1105938204
 20
205.6909958732
 30
0.0
  0
INSERT
  5
BA
330
1F
100
AcDbEntity
  8
FORMAT
 62
     7
100
AcDbBlockReference
  2
SW_CENTERMARKSYMBOL_2
 10
198.7502041272
 20
179.33060618
 30
0.0
  0
INSERT
  5
C6
330
1F
100
AcDbEntity
  8
FORMAT
 62
     7
100
AcDbBlockReference
  2
SW_CENTERMARKSYMBOL_3
 10
225.1105938204
 20
115.6909958732
 30
0.0
  0
INSERT
  5
D2
330
1F
100
AcDbEntity
  8
FORMAT
 62
     7
100
AcDbBlockReference
  2
SW_CENTERMARKSYMBOL_4
 10
198.7502041272
 20
52.0513855664
 30
0.0
  0
INSERT
  5
DE
330
1F
100
AcDbEntity
  8
FORMAT
 62
     7
100
AcDbBlockReference
  2
SW_CENTERMARKSYMBOL_5
 10
71.4709835136
 20
179.33060618
 30
0.0
  0
INSERT
  5
EA
330
1F
100
AcDbEntity
  8
FORMAT
 62
     7
100
AcDbBlockReference
  2
SW_CENTERMARKSYMBOL_6
 10
45.1105938204
 20
115.6909958732
 30
0.0
  0
INSERT
  5
F6
330
1F
100
AcDbEntity
  8
FORMAT
 62
     7
100
AcDbBlockReference
  2
SW_CENTERMARKSYMBOL_7
 10
71.4709835136
 20
52.0513855664
 30
0.0
  0
LINE
  5
F7
330
1F
100
AcDbEntity
  8
0
  6
Continuous
 62
     7
370
    25
100
AcDbLine
 10
-147.0854182061
 20
227.6909958732
 30
0.0
 11
-165.0854182061
 21
227.6909958732
 31
0.0
  0
LINE
  5
F8
330
1F
100
AcDbEntity
  8
0
  6
Continuous
 62
     7
370
    25
100
AcDbLine
 10
-165.0854182061
 20
3.6909958732
 30
0.0
 11
-147.0854182061
 21
3.6909958732
 31
0.0
  0
ARC
  5
F9
330
1F
100
AcDbEntity
  8
0
  6
Continuous
 62
     7
370
    25
100
AcDbCircle
 10
-147.0854182061
 20
4.6909958732
 30
0.0
 40
1.000000000000001
100
AcDbArc
 50
270.0
 51
0.0
  0
ARC
  5
FA
330
1F
100
AcDbEntity
  8
0
  6
Continuous
 62
     7
370
    25
100
AcDbCircle
 10
-147.0854182061
 20
226.6909958732
 30
0.0
 40
1.0
100
AcDbArc
 50
0.0
 51
90.0
  0
ARC
  5
FB
330
1F
100
AcDbEntity
  8
0
  6
Continuous
 62
     7
370
    25
100
AcDbCircle
 10
-165.0854182061
 20
4.6909958732
 30
0.0
 40
1.000000000000001
100
AcDbArc
 50
180.0
 51
270.0
  0
ARC
  5
FC
330
1F
100
AcDbEntity
  8
0
  6
Continuous
 62
     7
370
    25
100
AcDbCircle
 10
-165.0854182061
 20
226.6909958732
 30
0.0
 40
1.0
100
AcDbArc
 50
90.0
 51
180.0
  0
LINE
  5
FD
330
1F
100
AcDbEntity
  8
0
  6
Continuous
 62
     7
370
    25
100
AcDbLine
 10
-146.0854182061
 20
115.6909958732
 30
0.0
 11
-146.0854182061
 21
4.6909958732
 31
0.0
  0
LINE
  5
FE
330
1F
100
AcDbEntity
  8
0
  6
Continuous
 62
     7
370
    25
100
AcDbLine
 10
-146.0854182061
 20
226.6909958732
 30
0.0
 11
-146.0854182061
 21
115.6909958732
 31
0.0
  0
LINE
  5
FF
330
1F
100
AcDbEntity
  8
0
  6
Continuous
 62
     7
370
    25
100
AcDbLine
 10
-166.0854182061
 20
115.6909958732
 30
0.0
 11
-166.0854182061
 21
226.6909958732
 31
0.0
  0
LINE
  5
100
330
1F
100
AcDbEntity
  8
0
  6
Continuous
 62
     7
370
    25
100
AcDbLine
 10
-166.0854182061
 20
4.6909958732
 30
0.0
 11
-166.0854182061
 21
115.6909958732
 31
0.0
  0
LINE
  5
101
330
1F
100
AcDbEntity
  8
0
  6
Continuous
 62
     1
370
    25
100
AcDbLine
 10
-165.0854182061
 20
115.6909958732
 30
0.0
 11
-165.0854182061
 21
3.6909958732
 31
0.0
  0
LINE
  5
102
330
1F
100
AcDbEntity
  8
0
  6
Continuous
 62
     1
370
    25
100
AcDbLine
 10
-165.0854182061
 20
227.6909958732
 30
0.0
 11
-165.0854182061
 21
115.6909958732
 31
0.0
  0
LINE
  5
103
330
1F
100
AcDbEntity
  8
0
  6
Continuous
 62
     1
370
    25
100
AcDbLine
 10
-147.0854182061
 20
115.6909958732
 30
0.0
 11
-147.0854182061
 21
227.6909958732
 31
0.0
  0
LINE
  5
104
330
1F
100
AcDbEntity
  8
0
  6
Continuous
 62
     1
370
    25
100
AcDbLine
 10
-147.0854182061
 20
3.6909958732
 30
0.0
 11
-147.0854182061
 21
115.6909958732
 31
0.0
  0
LINE
  5
105
330
1F
100
AcDbEntity
  8
0
  6
Continuous
 62
     7
370
    25
100
AcDbLine
 10
374.6842713611
 20
3.6909958732
 30
0.0
 11
392.6842713611
 21
3.6909958732
 31
0.0
  0
LINE
  5
106
330
1F
100
AcDbEntity
  8
0
  6
Continuous
 62
     7
370
    25
100
AcDbLine
 10
392.6842713611
 20
227.6909958732
 30
0.0
 11
374.6842713611
 21
227.6909958732
 31
0.0
  0
ARC
  5
107
330
1F
100
AcDbEntity
  8
0
  6
Continuous
 62
     7
370
    25
100
AcDbCircle
 10
374.6842713611
 20
226.6909958732
 30
0.0
 40
1.0
100
AcDbArc
 50
90.0
 51
180.0
  0
ARC
  5
108
330
1F
100
AcDbEntity
  8
0
  6
Continuous
 62
     7
370
    25
100
AcDbCircle
 10
374.6842713611
 20
4.6909958732
 30
0.0
 40
1.000000000000001
100
AcDbArc
 50
180.0
 51
270.0
  0
ARC
  5
109
330
1F
100
AcDbEntity
  8
0
  6
Continuous
 62
     7
370
    25
100
AcDbCircle
 10
392.6842713611
 20
226.6909958732
 30
0.0
 40
1.0
100
AcDbArc
 50
0.0
 51
90.0
  0
ARC
  5
10A
330
1F
100
AcDbEntity
  8
0
  6
Continuous
 62
     7
370
    25
100
AcDbCircle
 10
392.6842713611
 20
4.6909958732
 30
0.0
 40
1.000000000000001
100
AcDbArc
 50
270.0
 51
0.0
  0
LINE
  5
10B
330
1F
100
AcDbEntity
  8
0
  6
Continuous
 62
     7
370
    25
100
AcDbLine
 10
373.6842713611
 20
4.6909958732
 30
0.0
 11
373.6842713611
 21
226.6909958732
 31
0.0
  0
LINE
  5
10C
330
1F
100
AcDbEntity
  8
0
  6
Continuous
 62
     7
370
    25
100
AcDbLine
 10
393.6842713611
 20
226.6909958732
 30
0.0
 11
393.6842713611
 21
4.6909958732
 31
0.0
  0
LINE
  5
10D
330
1F
100
AcDbEntity
  8
0
  6
Continuous
 62
     1
370
    25
100
AcDbLine
 10
392.6842713611
 20
3.6909958732
 30
0.0
 11
392.6842713611
 21
227.6909958732
 31
0.0
  0
LINE
  5
10E
330
1F
100
AcDbEntity
  8
0
  6
Continuous
 62
     1
370
    25
100
AcDbLine
 10
374.6842713611
 20
227.6909958732
 30
0.0
 11
374.6842713611
 21
3.6909958732
 31
0.0
  0
LINE
  5
10F
330
1F
100
AcDbEntity
  8
0
  6
Continuous
 62
     7
370
    25
100
AcDbLine
 10
247.1105938204
 20
321.9443668165
 30
0.0
 11
247.1105938204
 21
339.9443668165
 31
0.0
  0
LINE
  5
110
330
1F
100
AcDbEntity
  8
0
  6
Continuous
 62
     7
370
    25
100
AcDbLine
 10
23.1105938204
 20
339.9443668165
 30
0.0
 11
23.1105938204
 21
321.9443668165
 31
0.0
  0
ARC
  5
111
330
1F
100
AcDbEntity
  8
0
  6
Continuous
 62
     7
370
    25
100
AcDbCircle
 10
24.1105938204
 20
321.9443668165
 30
0.0
 40
1.0
100
AcDbArc
 50
180.0
 51
270.0
  0
ARC
  5
112
330
1F
100
AcDbEntity
  8
0
  6
Continuous
 62
     7
370
    25
100
AcDbCircle
 10
246.1105938204
 20
321.9443668165
 30
0.0
 40
1.0
100
AcDbArc
 50
270.0
 51
0.0
  0
ARC
  5
113
330
1F
100
AcDbEntity
  8
0
  6
Continuous
 62
     7
370
    25
100
AcDbCircle
 10
24.1105938204
 20
339.9443668165
 30
0.0
 40
1.0
100
AcDbArc
 50
90.0
 51
180.0
  0
ARC
  5
114
330
1F
100
AcDbEntity
  8
0
  6
Continuous
 62
     7
370
    25
100
AcDbCircle
 10
246.1105938204
 20
339.9443668165
 30
0.0
 40
1.0
100
AcDbArc
 50
0.0
 51
90.0
  0
LINE
  5
115
330
1F
100
AcDbEntity
  8
0
  6
Continuous
 62
     7
370
    25
100
AcDbLine
 10
246.1105938204
 20
320.9443668165
 30
0.0
 11
24.1105938204
 21
320.9443668165
 31
0.0
  0
LINE
  5
116
330
1F
100
AcDbEntity
  8
0
  6
Continuous
 62
     7
370
    25
100
AcDbLine
 10
24.1105938205
 20
340.9443668165
 30
0.0
 11
246.1105938204
 21
340.9443668165
 31
0.0
  0
LINE
  5
117
330
1F
100
AcDbEntity
  8
0
  6
Continuous
 62
     1
370
    25
100
AcDbLine
 10
247.1105938204
 20
339.9443668165
 30
0.0
 11
23.1105938204
 21
339.9443668165
 31
0.0
  0
LINE
  5
118
330
1F
100
AcDbEntity
  8
0
  6
Continuous
 62
     1
370
    25
100
AcDbLine
 10
23.1105938204
 20
321.9443668165
 30
0.0
 11
247.1105938204
 21
321.9443668165
 31
0.0
  0
LINE
  5
119
330
1F
100
AcDbEntity
  8
0
  6
Continuous
 62
     7
370
    25
100
AcDbLine
 10
23.1105938204
 20
-165.6146447883
 30
0.0
 11
23.1105938204
 21
-183.6146447883
 31
0.0
  0
LINE
  5
11A
330
1F
100
AcDbEntity
  8
0
  6
Continuous
 62
     7
370
    25
100
AcDbLine
 10
247.1105938204
 20
-183.6146447883
 30
0.0
 11
247.1105938204
 21
-165.6146447883
 31
0.0
  0
ARC
  5
11B
330
1F
100
AcDbEntity
  8
0
  6
Continuous
 62
     7
370
    25
100
AcDbCircle
 10
246.1105938204
 20
-165.6146447883
 30
0.0
 40
1.0
100
AcDbArc
 50
0.0
 51
90.0
  0
ARC
  5
11C
330
1F
100
AcDbEntity
  8
0
  6
Continuous
 62
     7
370
    25
100
AcDbCircle
 10
24.1105938204
 20
-165.6146447883
 30
0.0
 40
1.0
100
AcDbArc
 50
90.0
 51
180.0
  0
ARC
  5
11D
330
1F
100
AcDbEntity
  8
0
  6
Continuous
 62
     7
370
    25
100
AcDbCircle
 10
246.1105938204
 20
-183.6146447883
 30
0.0
 40
1.0
100
AcDbArc
 50
270.0
 51
0.0
  0
ARC
  5
11E
330
1F
100
AcDbEntity
  8
0
  6
Continuous
 62
     7
370
    25
100
AcDbCircle
 10
24.1105938204
 20
-183.6146447883
 30
0.0
 40
1.0
100
AcDbArc
 50
180.0
 51
270.0
  0
LINE
  5
11F
330
1F
100
AcDbEntity
  8
0
  6
Continuous
 62
     7
370
    25
100
AcDbLine
 10
24.1105938205
 20
-164.6146447883
 30
0.0
 11
246.1105938204
 21
-164.6146447883
 31
0.0
  0
LINE
  5
120
330
1F
100
AcDbEntity
  8
0
  6
Continuous
 62
     7
370
    25
100
AcDbLine
 10
246.1105938204
 20
-184.6146447883
 30
0.0
 11
24.1105938204
 21
-184.6146447883
 31
0.0
  0
LINE
  5
121
330
1F
100
AcDbEntity
  8
0
  6
Continuous
 62
     1
370
    25
100
AcDbLine
 10
23.1105938204
 20
-183.6146447883
 30
0.0
 11
247.1105938204
 21
-183.6146447883
 31
0.0
  0
LINE
  5
122
330
1F
100
AcDbEntity
  8
0
  6
Continuous
 62
     1
370
    25
100
AcDbLine
 10
247.1105938204
 20
-165.6146447883
 30
0.0
 11
23.1105938204
 21
-165.6146447883
 31
0.0
  0
SPLINE
  5
123
330
1F
100
AcDbEntity
  8
0
  6
Continuous
 62
     7
370
    25
100
AcDbSpline
210
0.0
220
0.0
230
1.0
 70
     8
 71
     3
 72
    76
 73
    72
 74
     0
 42
0.00000001
 43
0.00000001
 40
0.0
 40
0.0
 40
0.0
 40
0.0
 40
0.0004293278133795
 40
0.0150630012750091
 40
0.0297092931939576
 40
0.044369962459677
 40
0.0590457410895596
 40
0.0737364405456642
 40
0.0884411359848101
 40
0.1031583854461766
 40
0.1178864463682
 40
0.132623463166036
 40
0.1473676123228976
 40
0.1621172022167461
 40
0.1768707321597293
 40
0.19162691881286
 40
0.2063846990512883
 40
0.2211432175449466
 40
0.2359016667259172
 40
0.2506595416985242
 40
0.2654165127891136
 40
0.2801723554026797
 40
0.2949269295729403
 40
0.3096801624744384
 40
0.324432033828451
 40
0.3391825639594971
 40
0.3539318041782237
 40
0.3686798291463326
 40
0.3834267308935384
 40
0.3981726141886022
 40
0.4129175930051925
 40
0.4276617878627929
 40
0.442405323859285
 40
0.4571483292439973
 40
0.4718909344069196
 40
0.4866332711818898
 40
0.5013754723788275
 40
0.5161176714731169
 40
0.5308599735871702
 40
0.5456024971332292
 40
0.560345376482938
 40
0.5750887459114206
 40
0.5898327392394278
 40
0.6045774892970518
 40
0.6193231271298719
 40
0.6340697808559302
 40
0.6488175740625463
 40
0.6635666236076235
 40
0.6783170366605098
 40
0.6930689067826358
 40
0.7078223088088491
 40
0.7225772922485455
 40
0.7373338728854392
 40
0.7520920222234513
 40
0.7668516544159559
 40
0.7816126103462323
 40
0.7963746386276308
 40
0.8111373735048402
 40
0.8259001982706803
 40
0.8406622916755969
 40
0.8554227225323524
 40
0.8701803385249318
 40
0.8849337554870611
 40
0.8996813642723301
 40
0.9144213641374358
 40
0.9291518321465629
 40
0.9438708366002152
 40
0.9585765977925483
 40
0.9732676907797294
 40
0.9879432726870883
 40
1.0
 40
1.0
 40
1.0
 40
1.0
 10
426.756802571137
 20
-25.29429084413111
 30
0.0
 10
426.730867798179
 20
-25.2863611124958
 30
0.0
 10
425.8209441781415
 20
-25.00814583267749
 30
0.0
 10
423.9520064323147
 20
-24.62179079022253
 30
0.0
 10
421.1490878490491
 20
-24.15065560879322
 30
0.0
 10
418.2644309735181
 20
-23.87865245868782
 30
0.0
 10
415.3151370003114
 20
-23.78005048259835
 30
0.0
 10
412.3030648680681
 20
-23.86229162985518
 30
0.0
 10
409.2344119784602
 20
-24.1234966773511
 30
0.0
 10
406.1144267795427
 20
-24.56383987871549
 30
0.0
 10
402.9487864991119
 20
-25.18248139086383
 30
0.0
 10
399.7431846520083
 20
-25.97838799334486
 30
0.0
 10
396.5034021695758
 20
-26.95012062753015
 30
0.0
 10
393.2352548509303
 20
-28.09590585760785
 30
0.0
 10
389.9445809671889
 20
-29.41363463318172
 30
0.0
 10
386.6372246062834
 20
-30.90088144420314
 30
0.0
 10
383.3190254423849
 20
-32.55491721385423
 30
0.0
 10
379.9958210085187
 20
-34.37271649213954
 30
0.0
 10
376.6734298154377
 20
-36.35097192123031
 30
0.0
 10
373.3576426346197
 20
-38.48610595470436
 30
0.0
 10
370.0542072769049
 20
-40.77428780286535
 30
0.0
 10
366.7688342277042
 20
-43.21143560784431
 30
0.0
 10
363.5071940851074
 20
-45.79322136628253
 30
0.0
 10
360.2749109210363
 20
-48.51507785987808
 30
0.0
 10
357.077555117875
 20
-51.37220569079988
 30
0.0
 10
353.9206357460943
 20
-54.35958056552422
 30
0.0
 10
350.8095925677392
 20
-57.47196092483593
 30
0.0
 10
347.7497877567708
 20
-60.70389598110189
 30
0.0
 10
344.7464974253526
 20
-64.04973419578624
 30
0.0
 10
341.8049030389193
 20
-67.50363220932685
 30
0.0
 10
338.9300827946484
 20
-71.05956422050419
 30
0.0
 10
336.1270030292902
 20
-74.7113318019181
 30
0.0
 10
333.4005097140207
 20
-78.45257413101237
 30
0.0
 10
330.7553200864991
 20
-82.27677861127925
 30
0.0
 10
328.1960144638234
 20
-86.17729185509526
 30
0.0
 10
325.7270282745032
 20
-90.14733099765724
 30
0.0
 10
323.3526443431754
 20
-94.17999530966986
 30
0.0
 10
321.0769869391782
 20
-98.2682754144385
 30
0.0
 10
318.9040136463518
 20
-102.4050664398719
 30
0.0
 10
316.8375075852803
 20
-106.5831818125685
 30
0.0
 10
314.8810697674077
 20
-110.795368597573
 30
0.0
 10
313.0381139066936
 20
-115.0343189962287
 30
0.0
 10
311.3118615297566
 20
-119.2926815565878
 30
0.0
 10
309.7053367161872
 20
-123.5630739090844
 30
0.0
 10
308.2213612593595
 20
-127.8380955041462
 30
0.0
 10
306.8625502583873
 20
-132.1103403030498
 30
0.0
 10
305.6313081476084
 20
-136.3724093692893
 30
0.0
 10
304.5298251645574
 20
-140.6169233025842
 30
0.0
 10
303.5600742500101
 20
-144.836534451956
 30
0.0
 10
302.7238083637186
 20
-149.023938838241
 30
0.0
 10
302.0225581861043
 20
-153.1718877104923
 30
0.0
 10
301.4576301584919
 20
-157.273198655838
 30
0.0
 10
301.0301047915156
 20
-161.3207661799071
 30
0.0
 10
300.7408351421673
 20
-165.3075716772112
 30
0.0
 10
300.5904453242996
 20
-169.2266927207353
 30
0.0
 10
300.5793288749009
 20
-173.0713116235699
 30
0.0
 10
300.7076467540285
 20
-176.8347232628634
 30
0.0
 10
300.9753240289104
 20
-180.5103329628782
 30
0.0
 10
301.3820440228934
 20
-184.0916612821427
 30
0.0
 10
301.9272418790423
 20
-187.5723590680521
 30
0.0
 10
302.6100994376165
 20
-190.9462229195258
 30
0.0
 10
303.4295381413451
 20
-194.207206266618
 30
0.0
 10
304.3842112449986
 20
-197.3494195974542
 30
0.0
 10
305.472484449725
 20
-200.3671577690617
 30
0.0
 10
306.6924610957406
 20
-203.2548705015469
 30
0.0
 10
308.0418460136039
 20
-206.0073663195308
 30
0.0
 10
309.5184253155128
 20
-208.6191701803042
 30
0.0
 10
311.1182765978278
 20
-211.0870584399744
 30
0.0
 10
312.8424772478903
 20
-213.4007666589149
 30
0.0
 10
314.5640020770084
 20
-215.4490459059253
 30
0.0
 10
315.764501538824
 20
-216.6497566435574
 30
0.0
 10
316.3059472677038
 20
-217.1912976614332
 30
0.0
  0
LINE
  5
124
330
1F
100
AcDbEntity
  8
0
  6
Continuous
 62
     7
370
    25
100
AcDbLine
 10
448.8024751008
 20
-36.4910934812
 30
0.0
 11
436.0745530394
 21
-29.1434204748
 31
0.0
  0
LINE
  5
125
330
1F
100
AcDbEntity
  8
0
  6
Continuous
 62
     7
370
    25
100
AcDbLine
 10
324.0836549842
 20
-223.1383656481
 30
0.0
 11
336.8115770456
 21
-230.4860386545
 31
0.0
  0
SPLINE
  5
126
330
1F
100
AcDbEntity
  8
0
  6
Continuous
 62
     7
370
    25
100
AcDbSpline
210
0.0
220
0.0
230
1.0
 70
     8
 71
     3
 72
    61
 73
    57
 74
     0
 42
0.00000001
 43
0.00000001
 40
0.0
 40
0.0
 40
0.0
 40
0.0
 40
0.0005018228358886
 40
0.0193357500142196
 40
0.0381855998518861
 40
0.0570537787902335
 40
0.0759413650866933
 40
0.0948482318752253
 40
0.1137732763144122
 40
0.1327146994403957
 40
0.1516702871103203
 40
0.1706376564967798
 40
0.1896144490216887
 40
0.2085984648800004
 40
0.2275877441539206
 40
0.2465806047125958
 40
0.2655756485823305
 40
0.2845717476030872
 40
0.3035678605230162
 40
0.3225632885419631
 40
0.3415575912747098
 40
0.3605504665965337
 40
0.3795417239253424
 40
0.3985312613066921
 40
0.4175190462460068
 40
0.4365050999923573
 40
0.4554894848631936
 40
0.4744722941669199
 40
0.4934536442952758
 40
0.5124336685969668
 40
0.5314125126934939
 40
0.5503903309489574
 40
0.5693672838531614
 40
0.5883435361192261
 40
0.6073192553324084
 40
0.6262946110158522
 40
0.6452697740018495
 40
0.6642449160145617
 40
0.6832201784048387
 40
0.7021957074563486
 40
0.7211716761156284
 40
0.7401482572443856
 40
0.7591256231775313
 40
0.7781039450619844
 40
0.7970833918752847
 40
0.816064129008379
 40
0.8350463162726193
 40
0.8540301051604637
 40
0.8730156351519336
 40
0.8920030288147323
 40
0.9109923853959049
 40
0.9299837725491947
 40
0.9489772157899253
 40
0.9679726852269822
 40
0.9869700791044037
 40
1.0
 40
1.0
 40
1.0
 40
1.0
 10
345.8513695337909
 20
-234.2594162512167
 30
0.0
 10
345.8748442354808
 20
-234.2667813502469
 30
0.0
 10
346.7793486363852
 20
-234.5505661912187
 30
0.0
 10
348.6403116111879
 20
-234.9489201245069
 30
0.0
 10
351.4352076885772
 20
-235.4389965524815
 30
0.0
 10
354.3124609180842
 20
-235.7299462692658
 30
0.0
 10
357.254854122619
 20
-235.8475733985147
 30
0.0
 10
360.2605871738404
 20
-235.7843740623247
 30
0.0
 10
363.3234718832933
 20
-235.5421980133849
 30
0.0
 10
366.4382783167299
 20
-235.1208304039194
 30
0.0
 10
369.5993407115841
 20
-234.5210725002164
 30
0.0
 10
372.8009744534131
 20
-233.7439186839448
 30
0.0
 10
376.0374042581562
 20
-232.790770447806
 30
0.0
 10
379.3028176230904
 20
-231.663365072405
 30
0.0
 10
382.5913777176502
 20
-230.3637770577972
 30
0.0
 10
385.8972405471133
 20
-228.8943989159079
 30
0.0
 10
389.2145655382395
 20
-227.2579281529601
 30
0.0
 10
392.5375148014362
 20
-225.4573591537237
 30
0.0
 10
395.8602671841305
 20
-223.4959700104668
 30
0.0
 10
399.1770287378226
 20
-221.3773100397139
 30
0.0
 10
402.4820466768222
 20
-219.1051837343963
 30
0.0
 10
405.7696066487672
 20
-216.683646417601
 30
0.0
 10
409.0340335165458
 20
-214.1170002948344
 30
0.0
 10
412.2696979387595
 20
-211.4097875241846
 30
0.0
 10
415.4710234800847
 20
-208.5667831997028
 30
0.0
 10
418.6324941887355
 20
-205.5929880993011
 30
0.0
 10
421.7486625575568
 20
-202.4936210949597
 30
0.0
 10
424.8141577779356
 20
-199.274111160672
 30
0.0
 10
427.8236941969781
 20
-195.9400889425452
 30
0.0
 10
430.7720798943282
 20
-192.4973778770208
 30
0.0
 10
433.6542253030903
 20
-188.9519848587354
 30
0.0
 10
436.4651518079901
 20
-185.3100904704596
 30
0.0
 10
439.2000002622626
 20
-181.5780387950462
 30
0.0
 10
441.8540393723343
 20
-177.7623268343308
 30
0.0
 10
444.4226739059696
 20
-173.8695935632571
 30
0.0
 10
446.9014526852059
 20
-169.9066086495912
 30
0.0
 10
449.2860763299492
 20
-165.8802608713694
 30
0.0
 10
451.5724034784186
 20
-161.79754848588
 30
0.0
 10
453.7564584252491
 20
-157.6655669604193
 30
0.0
 10
455.8344392177942
 20
-153.4914947904597
 30
0.0
 10
457.8027251582383
 20
-149.2825786294395
 30
0.0
 10
459.6578824587292
 20
-145.0461208967134
 30
0.0
 10
461.3966689381757
 20
-140.7894690136369
 30
0.0
 10
463.0160393171914
 20
-136.5200026757868
 30
0.0
 10
464.5131501345323
 20
-132.2451210949012
 30
0.0
 10
465.8853640817096
 20
-127.9722303692674
 30
0.0
 10
467.1302544664143
 20
-123.70873062302
 30
0.0
 10
468.2456071250664
 20
-119.4620045084915
 30
0.0
 10
469.2294297859426
 20
-115.2394013982939
 30
0.0
 10
470.0799315877077
 20
-111.0482387470198
 30
0.0
 10
470.7956120457342
 20
-106.89574077939
 30
0.0
 10
471.3749396910522
 20
-102.789212888778
 30
0.0
 10
471.8175607518028
 20
-98.7353383679753
 30
0.0
 10
472.1197955108955
 20
-94.74275370951332
 30
0.0
 10
472.2734766573363
 20
-91.22404605445594
 30
0.0
 10
472.2894004036488
 20
-89.05881400956378
 30
0.0
 10
472.2958787848769
 20
-88.17791586167023
 30
0.0
  0
SPLINE
  5
127
330
1F
100
AcDbEntity
  8
0
  6
Continuous
 62
     7
370
    25
100
AcDbSpline
210
0.0
220
0.0
230
1.0
 70
     8
 71
     3
 72
    23
 73
    19
 74
     0
 42
0.00000001
 43
0.00000001
 40
0.0
 40
0.0
 40
0.0
 40
0.0
 40
0.0351421464760452
 40
0.1018769357788291
 40
0.1686193213286827
 40
0.2353617177498763
 40
0.3021004056743607
 40
0.3688310730210092
 40
0.435548400130237
 40
0.5022460180214321
 40
0.5689165501601741
 40
0.635551778653554
 40
0.7021429776720354
 40
0.768681448793381
 40
0.8351592699336298
 40
0.9015702286522852
 40
0.9679108543919573
 40
1.0
 40
1.0
 40
1.0
 40
1.0
 10
472.2958787848769
 20
-88.17791586167023
 30
0.0
 10
472.2919909697612
 20
-87.50653291151283
 30
0.0
 10
472.2807202099875
 20
-85.56019654464319
 30
0.0
 10
472.1554949222129
 20
-82.4008676805926
 30
0.0
 10
471.8745382075645
 20
-78.7342268449315
 30
0.0
 10
471.4526883756356
 20
-75.16350022366228
 30
0.0
 10
470.8929424536675
 20
-71.69379221162625
 30
0.0
 10
470.1955028453794
 20
-68.33164179531606
 30
0.0
 10
469.3616488922856
 20
-65.08298425854207
 30
0.0
 10
468.3927091054242
 20
-61.95371853728923
 30
0.0
 10
467.2903655632452
 20
-58.9495165136311
 30
0.0
 10
466.0565238310821
 20
-56.07593453793622
 30
0.0
 10
464.6935825419225
 20
-53.33804185502075
 30
0.0
 10
463.2035226826986
 20
-50.74164769670811
 30
0.0
 10
461.5912816424006
 20
-48.28859484490508
 30
0.0
 10
459.8521407826072
 20
-45.99414093505212
 30
0.0
 10
458.333530089655
 20
-44.19508642528174
 30
0.0
 10
457.3527241935553
 20
-43.22156969528118
 30
0.0
 10
457.0329711068394
 20
-42.90419295374133
 30
0.0
  0
SPLINE
  5
128
330
1F
100
AcDbEntity
  8
0
  6
Continuous
 62
     7
370
    25
100
AcDbSpline
210
0.0
220
0.0
230
1.0
 70
     8
 71
     3
 72
    14
 73
    10
 74
     0
 42
0.00000001
 43
0.00000001
 40
0.0
 40
0.0
 40
0.0
 40
0.0
 40
0.0497803310260053
 40
0.2515460809320076
 40
0.427704635551386
 40
0.6152365469700823
 40
0.7955769620301744
 40
0.9624198577146404
 40
1.0
 40
1.0
 40
1.0
 40
1.0
 10
429.4872082276153
 20
-144.3010937646311
 30
0.0
 10
429.5382864518194
 20
-144.3224316839442
 30
0.0
 10
429.7963909451943
 20
-144.4302547913402
 30
0.0
 10
430.1485764031921
 20
-144.7613329565944
 30
0.0
 10
430.5674578776034
 20
-145.3213825529282
 30
0.0
 10
430.8803515850907
 20
-146.0326540851073
 30
0.0
 10
431.0823600860194
 20
-146.880968092526
 30
0.0
 10
431.1463205537149
 20
-147.5784317042798
 30
0.0
 10
431.1495737684212
 20
-147.9727541886975
 30
0.0
 10
431.1501718236735
 20
-148.0452445264691
 30
0.0
  0
SPLINE
  5
129
330
1F
100
AcDbEntity
  8
0
  6
Continuous
 62
     7
370
    25
100
AcDbSpline
210
0.0
220
0.0
230
1.0
 70
     8
 71
     3
 72
    25
 73
    21
 74
     0
 42
0.00000001
 43
0.00000001
 40
0.0
 40
0.0
 40
0.0
 40
0.0
 40
0.031087374913745
 40
0.0907852873530853
 40
0.1507040968075044
 40
0.2108334388599626
 40
0.2711402336252073
 40
0.3315630663185254
 40
0.3920305222459327
 40
0.4524567286145587
 40
0.5127519317552023
 40
0.5728414391005526
 40
0.6326591996644836
 40
0.6921676385348755
 40
0.751403380620745
 40
0.8105507644899783
 40
0.8699577179240418
 40
0.9305376937507127
 40
0.9938781959802956
 40
1.0
 40
1.0
 40
1.0
 40
1.0
 10
431.1501718236735
 20
-148.0452445264691
 30
0.0
 10
431.1467381022602
 20
-148.2265632431505
 30
0.0
 10
431.1367105143389
 20
-148.7560731114517
 30
0.0
 10
431.0230306392774
 20
-149.698510385595
 30
0.0
 10
430.7654752194971
 20
-150.8705627644275
 30
0.0
 10
430.3805706168854
 20
-152.074091588866
 30
0.0
 10
429.8772354933405
 20
-153.2797886764955
 30
0.0
 10
429.2650705660067
 20
-154.4605059244935
 30
0.0
 10
428.5576452292784
 20
-155.5890010472362
 30
0.0
 10
427.7712561323114
 20
-156.6394799187593
 30
0.0
 10
426.924783345816
 20
-157.5882222608975
 30
0.0
 10
426.039186469373
 20
-158.4143982629188
 30
0.0
 10
425.1370368027017
 20
-159.1008497751503
 30
0.0
 10
424.2420474607677
 20
-159.6347510587175
 30
0.0
 10
423.377822188647
 20
-160.0091386802553
 30
0.0
 10
422.5678932671005
 20
-160.221414730293
 30
0.0
 10
421.8276943387933
 20
-160.2821074898124
 30
0.0
 10
421.1754165075458
 20
-160.1808958527151
 30
0.0
 10
420.7597031904531
 20
-160.0559352104872
 30
0.0
 10
420.5785223072476
 20
-159.9152541575862
 30
0.0
 10
420.5625545987306
 20
-159.9028557521539
 30
0.0
  0
SPLINE
  5
12A
330
1F
100
AcDbEntity
  8
0
  6
Continuous
 62
     7
370
    25
100
AcDbSpline
210
0.0
220
0.0
230
1.0
 70
     8
 71
     3
 72
    20
 73
    16
 74
     0
 42
0.00000001
 43
0.00000001
 40
0.0
 40
0.0
 40
0.0
 40
0.0
 40
0.0408267314616571
 40
0.1253868295124691
 40
0.2097554304075563
 40
0.2939232343773696
 40
0.3779019024314133
 40
0.461716411311053
 40
0.5453978111396377
 40
0.6289777873702438
 40
0.7124852916285033
 40
0.7959448931524187
 40
0.8793763181809156
 40
0.9627946915893355
 40
1.0
 40
1.0
 40
1.0
 40
1.0
 10
418.1431525373377
 20
-70.97296198944659
 30
0.0
 10
418.3898363959728
 20
-71.20417552380465
 30
0.0
 10
419.1474504840662
 20
-71.91427723843141
 30
0.0
 10
420.2977557796627
 20
-73.2750564486011
 30
0.0
 10
421.5941201390821
 20
-75.0401165356391
 30
0.0
 10
422.7647486403698
 20
-76.9606252366582
 30
0.0
 10
423.8139969249277
 20
-79.01981645329099
 30
0.0
 10
424.737246350104
 20
-81.21476856669621
 30
0.0
 10
425.5326426676447
 20
-83.53861034690298
 30
0.0
 10
426.197963315579
 20
-85.98516334178127
 30
0.0
 10
426.7312174648503
 20
-88.54776005167756
 30
0.0
 10
427.1313546577492
 20
-91.2190294140431
 30
0.0
 10
427.3949603788179
 20
-93.99273400973435
 30
0.0
 10
427.5042080221933
 20
-96.3277704768687
 30
0.0
 10
427.5131579858986
 20
-97.74254158804723
 30
0.0
 10
427.5159185230908
 20
-98.17891523149846
 30
0.0
  0
SPLINE
  5
12B
330
1F
100
AcDbEntity
  8
0
  6
Continuous
 62
     7
370
    25
100
AcDbSpline
210
0.0
220
0.0
230
1.0
 70
     8
 71
     3
 72
    49
 73
    45
 74
     0
 42
0.00000001
 43
0.00000001
 40
0.0
 40
0.0
 40
0.0
 40
0.0
 40
0.0127808916658852
 40
0.0371063721218923
 40
0.0614374579368668
 40
0.0857723996744159
 40
0.1101118131398015
 40
0.1344559479237103
 40
0.1588047868799718
 40
0.1831581226263513
 40
0.207515614693849
 40
0.2318768313941141
 40
0.2562412798972127
 40
0.2806084273797535
 40
0.3049777155188407
 40
0.3293485701118765
 40
0.3537204072057349
 40
0.3780926368169334
 40
0.4024645967643249
 40
0.4268355610586616
 40
0.4512049325856977
 40
0.4755721152941527
 40
0.4999365174319156
 40
0.5242975570088368
 40
0.548654670490554
 40
0.573007326046394
 40
0.5973550430559068
 40
0.621697420061262
 40
0.6460341739321497
 40
0.6703651936546008
 40
0.6946906127814765
 40
0.7190109050122624
 40
0.743327007263748
 40
0.7676404733575659
 40
0.7919532779706973
 40
0.8162679368712733
 40
0.8405886129791785
 40
0.8649208143451996
 40
0.889271508331921
 40
0.9136490643548723
 40
0.9380628954372321
 40
0.962522647581025
 40
0.9870368150305816
 40
1.0
 40
1.0
 40
1.0
 40
1.0
 10
427.5159185230908
 20
-98.17891523149846
 30
0.0
 10
427.5121276123593
 20
-98.69713973898735
 30
0.0
 10
427.5011215771028
 20
-100.201685111897
 30
0.0
 10
427.3786363483071
 20
-102.7525580060866
 30
0.0
 10
427.1035905132058
 20
-105.8470580796563
 30
0.0
 10
426.6908154769007
 20
-109.0023765292391
 30
0.0
 10
426.1436720843791
 20
-112.2077660454286
 30
0.0
 10
425.4629481046508
 20
-115.4542721593185
 30
0.0
 10
424.6506393193673
 20
-118.7323074019694
 30
0.0
 10
423.7089329846404
 20
-122.0323129727429
 30
0.0
 10
422.6404714931049
 20
-125.3446239033458
 30
0.0
 10
421.448270758634
 20
-128.6595462831725
 30
0.0
 10
420.1357294348454
 20
-131.967376369666
 30
0.0
 10
418.7066123876638
 20
-135.2584341642527
 30
0.0
 10
417.1650398795517
 20
-138.5230921529906
 30
0.0
 10
415.5154741779396
 20
-141.7518045108519
 30
0.0
 10
413.762705906556
 20
-144.9351354460223
 30
0.0
 10
411.9118413139981
 20
-148.0637841858315
 30
0.0
 10
409.9682893028252
 20
-151.1286101409273
 30
0.0
 10
407.93774287473
 20
-154.1206660102965
 30
0.0
 10
405.8261604718552
 20
-157.0312272284005
 30
0.0
 10
403.6397465124027
 20
-159.8518200583365
 30
0.0
 10
401.3849371849748
 20
-162.5742418333784
 30
0.0
 10
399.0683821117332
 20
-165.1905862312629
 30
0.0
 10
396.6969252640845
 20
-167.6932681544063
 30
0.0
 10
394.2775850365352
 20
-170.0750482148237
 30
0.0
 10
391.8175333364138
 20
-172.3290568133341
 30
0.0
 10
389.3240734883987
 20
-174.4488177760371
 30
0.0
 10
386.8046166797052
 20
-176.4282714637754
 30
0.0
 10
384.2666565909589
 20
-178.2617971815407
 30
0.0
 10
381.7177417631221
 20
-179.9442345974123
 30
0.0
 10
379.1654452121507
 20
-181.470903605858
 30
0.0
 10
376.6173306597998
 20
-182.83762202246
 30
0.0
 10
374.0809285027873
 20
-184.0407128785951
 30
0.0
 10
371.5637091662689
 20
-185.0770130369837
 30
0.0
 10
369.0730245064148
 20
-185.943884045326
 30
0.0
 10
366.6160357388466
 20
-186.6392347700333
 30
0.0
 10
364.1996947502013
 20
-187.1614123391393
 30
0.0
 10
361.8305538299857
 20
-187.5094955839168
 30
0.0
 10
359.5153417319072
 20
-187.6819891631201
 30
0.0
 10
357.2586816155562
 20
-187.681449079726
 30
0.0
 10
355.0716232304645
 20
-187.496872484049
 30
0.0
 10
353.2764112909861
 20
-187.2210268407338
 30
0.0
 10
352.2445078202898
 20
-186.9396295825099
 30
0.0
 10
351.8875787765389
 20
-186.8422960070891
 30
0.0
  0
SPLINE
  5
12C
330
1F
100
AcDbEntity
  8
0
  6
Continuous
 62
     7
370
    25
100
AcDbSpline
210
0.0
220
0.0
230
1.0
 70
     8
 71
     3
 72
    59
 73
    55
 74
     0
 42
0.00000001
 43
0.00000001
 40
0.0
 40
0.0
 40
0.0
 40
0.0
 40
0.0196154170060626
 40
0.0392701795290908
 40
0.0588789259907172
 40
0.078446112651398
 40
0.0979784417337628
 40
0.1174833548698587
 40
0.1369680030812246
 40
0.1564386704527935
 40
0.175900539786346
 40
0.1953576771670305
 40
0.2148131357508447
 40
0.2342686006354734
 40
0.2537256484249464
 40
0.2731854043407947
 40
0.2926485394246863
 40
0.3121153844702632
 40
0.3315860206153775
 40
0.3510603493008656
 40
0.3705381450596393
 40
0.3900190945538689
 40
0.4095028248906393
 40
0.4289889237476303
 40
0.4484769533479108
 40
0.4679664598900088
 40
0.4874569796838247
 40
0.5069480429656612
 40
0.5264391761599619
 40
0.5459297670790684
 40
0.5654193160992512
 40
0.58490734589073
 40
0.6043933811233464
 40
0.6238769518855444
 40
0.6433575992660833
 40
0.6628348840307174
 40
0.6823083995990281
 40
0.7017777908729111
 40
0.7212427808955235
 40
0.7407032078149003
 40
0.760159075146649
 40
0.7796106187746281
 40
0.7990583942965078
 40
0.818503387847458
 40
0.8379471518031978
 40
0.8573911925347975
 40
0.8768383031711277
 40
0.8962923496282355
 40
0.9157583323444883
 40
0.9352424182805169
 40
0.9547517857935488
 40
0.9742941669429596
 40
0.9938769710584406
 40
1.0
 40
1.0
 40
1.0
 40
1.0
 10
353.3065560152297
 20
-187.1774936420478
 30
0.0
 10
352.849970646511
 20
-186.6261856148737
 30
0.0
 10
351.935884068877
 20
-185.522463721209
 30
0.0
 10
350.7100849239357
 20
-183.6722511010553
 30
0.0
 10
349.5958776757481
 20
-181.6867881936271
 30
0.0
 10
348.6080828529012
 20
-179.5600934559396
 30
0.0
 10
347.7464821449503
 20
-177.3019991551102
 30
0.0
 10
347.0140512792703
 20
-174.9176891358401
 30
0.0
 10
346.4126005634726
 20
-172.4139606577828
 30
0.0
 10
345.9439313936708
 20
-169.7976123988767
 30
0.0
 10
345.6094941454182
 20
-167.0759094975779
 30
0.0
 10
345.4104375438051
 20
-164.2564657937328
 30
0.0
 10
345.3475549900178
 20
-161.3472852060567
 30
0.0
 10
345.4212588837641
 20
-158.3567004719293
 30
0.0
 10
345.6315615388295
 20
-155.2933358504017
 30
0.0
 10
345.9780703531554
 20
-152.1660427321464
 30
0.0
 10
346.4599824240966
 20
-148.9838939415417
 30
0.0
 10
347.0760815709432
 20
-145.7561540176597
 30
0.0
 10
347.8247394087699
 20
-142.4922430600412
 30
0.0
 10
348.7039194623086
 20
-139.2017016649455
 30
0.0
 10
349.711183605085
 20
-135.8941570748446
 30
0.0
 10
350.8437003011003
 20
-132.5792904874591
 30
0.0
 10
352.0982542680774
 20
-129.2668054098202
 30
0.0
 10
353.4712572958825
 20
-125.9663969231916
 30
0.0
 10
354.9587600367598
 20
-122.6877217332043
 30
0.0
 10
356.5564646428492
 20
-119.4403688994796
 30
0.0
 10
358.2597381670196
 20
-116.233831161793
 30
0.0
 10
360.0636266686384
 20
-113.0774768038441
 30
0.0
 10
361.9628655671058
 20
-109.9805292170827
 30
0.0
 10
363.9518977759791
 20
-106.9520329530199
 30
0.0
 10
366.0248905657932
 20
-104.0008253913735
 30
0.0
 10
368.1757577118438
 20
-101.1355038126227
 30
0.0
 10
370.3981733222047
 20
-98.36440569094971
 30
0.0
 10
372.6855890782755
 20
-95.69558437962974
 30
0.0
 10
375.0312529469905
 20
-93.13678403928408
 30
0.0
 10
377.4282286835295
 20
-90.69541496075632
 30
0.0
 10
379.869416242595
 20
-88.37852928626248
 30
0.0
 10
382.3475732688891
 20
-86.19279715113804
 30
0.0
 10
384.855337904394
 20
-84.14448330282939
 30
0.0
 10
387.3852532252354
 20
-82.23942432587597
 30
0.0
 10
389.9297937194728
 20
-80.48300668325962
 30
0.0
 10
392.4813942520117
 20
-78.88014605300216
 30
0.0
 10
395.0324821879327
 20
-77.43526832266056
 30
0.0
 10
397.5755126748772
 20
-76.15229433404909
 30
0.0
 10
400.1029759532844
 20
-75.03464056019008
 30
0.0
 10
402.6074547567929
 20
-74.08520471127477
 30
0.0
 10
405.0816900931104
 20
-73.30632768783444
 30
0.0
 10
407.5186004250387
 20
-72.69992923970253
 30
0.0
 10
409.9115367211988
 20
-72.26705720855354
 30
0.0
 10
412.2534709162463
 20
-72.00975457173503
 30
0.0
 10
414.5401869978809
 20
-71.92430712860373
 30
0.0
 10
416.7584184198045
 20
-72.02678409177945
 30
0.0
 10
418.4309357326788
 20
-72.20467743375563
 30
0.0
 10
419.3352051935702
 20
-72.40589429550806
 30
0.0
 10
419.5505986440652
 20
-72.45382336535403
 30
0.0
  0
SPLINE
  5
12D
330
1F
100
AcDbEntity
  8
0
  6
Continuous
 62
     7
370
    25
100
AcDbSpline
210
0.0
220
0.0
230
1.0
 70
     8
 71
     3
 72
    14
 73
    10
 74
     0
 42
0.00000001
 43
0.00000001
 40
0.0
 40
0.0
 40
0.0
 40
0.0
 40
0.0497803310260108
 40
0.2515460809320114
 40
0.427704635551403
 40
0.6152365469701142
 40
0.7955769620302224
 40
0.9624198577146872
 40
1.0
 40
1.0
 40
1.0
 40
1.0
 10
448.1268185344071
 20
-81.57633670845877
 30
0.0
 10
448.1778967586112
 20
-81.59767462777178
 30
0.0
 10
448.4360012519861
 20
-81.70549773516784
 30
0.0
 10
448.788186709984
 20
-82.03657590042204
 30
0.0
 10
449.2070681843952
 20
-82.59662549675583
 30
0.0
 10
449.5199618918825
 20
-83.30789702893507
 30
0.0
 10
449.7219703928113
 20
-84.15621103635385
 30
0.0
 10
449.7859308605067
 20
-84.85367464810754
 30
0.0
 10
449.789184075213
 20
-85.24799713252519
 30
0.0
 10
449.7897821304653
 20
-85.32048747029673
 30
0.0
  0
SPLINE
  5
12E
330
1F
100
AcDbEntity
  8
0
  6
Continuous
 62
     7
370
    25
100
AcDbSpline
210
0.0
220
0.0
230
1.0
 70
     8
 71
     3
 72
    25
 73
    21
 74
     0
 42
0.00000001
 43
0.00000001
 40
0.0
 40
0.0
 40
0.0
 40
0.0
 40
0.0310873749137448
 40
0.0907852873530857
 40
0.1507040968075046
 40
0.2108334388599634
 40
0.2711402336252076
 40
0.3315630663185302
 40
0.3920305222459319
 40
0.4524567286145589
 40
0.512751931755202
 40
0.5728414391005552
 40
0.6326591996644864
 40
0.6921676385348772
 40
0.7514033806207466
 40
0.8105507644899741
 40
0.8699577179240395
 40
0.9305376937507104
 40
0.9938781959802937
 40
1.0
 40
1.0
 40
1.0
 40
1.0
 10
449.7897821304653
 20
-85.32048747029673
 30
0.0
 10
449.786348409052
 20
-85.50180618697806
 30
0.0
 10
449.7763208211308
 20
-86.03131605527929
 30
0.0
 10
449.6626409460691
 20
-86.97375332942265
 30
0.0
 10
449.4050855262889
 20
-88.14580570825511
 30
0.0
 10
449.0201809236772
 20
-89.34933453269363
 30
0.0
 10
448.5168458001323
 20
-90.5550316203231
 30
0.0
 10
447.9046808727985
 20
-91.7357488683211
 30
0.0
 10
447.1972555360702
 20
-92.86424399106379
 30
0.0
 10
446.4108664391031
 20
-93.91472286258693
 30
0.0
 10
445.5643936526077
 20
-94.86346520472512
 30
0.0
 10
444.6787967761647
 20
-95.6896412067464
 30
0.0
 10
443.7766471094934
 20
-96.37609271897787
 30
0.0
 10
442.8816577675595
 20
-96.90999400254519
 30
0.0
 10
442.0174324954388
 20
-97.28438162408284
 30
0.0
 10
441.2075035738923
 20
-97.49665767412061
 30
0.0
 10
440.467304645585
 20
-97.55735043363998
 30
0.0
 10
439.8150268143376
 20
-97.45613879654267
 30
0.0
 10
439.3993134972449
 20
-97.33117815431478
 30
0.0
 10
439.2181326140393
 20
-97.19049710141387
 30
0.0
 10
439.2021649055225
 20
-97.17809869598152
 30
0.0
  0
SPLINE
  5
12F
330
1F
100
AcDbEntity
  8
0
  6
Continuous
 62
     7
370
    25
100
AcDbSpline
210
0.0
220
0.0
230
1.0
 70
     8
 71
     3
 72
    14
 73
    10
 74
     0
 42
0.00000001
 43
0.00000001
 40
0.0
 40
0.0
 40
0.0
 40
0.0
 40
0.0497803310260445
 40
0.2515460809320601
 40
0.4277046355514464
 40
0.6152365469701521
 40
0.795576962030253
 40
0.9624198577147224
 40
1.0
 40
1.0
 40
1.0
 40
1.0
 10
384.4872082276137
 20
-191.8033748101986
 30
0.0
 10
384.5382864518178
 20
-191.8247127295117
 30
0.0
 10
384.7963909451927
 20
-191.9325358369078
 30
0.0
 10
385.1485764031906
 20
-192.2636140021621
 30
0.0
 10
385.5674578776018
 20
-192.8236635984959
 30
0.0
 10
385.8803515850891
 20
-193.5349351306751
 30
0.0
 10
386.0823600860178
 20
-194.3832491380939
 30
0.0
 10
386.1463205537132
 20
-195.0807127498476
 30
0.0
 10
386.1495737684195
 20
-195.4750352342652
 30
0.0
 10
386.1501718236718
 20
-195.5475255720366
 30
0.0
  0
SPLINE
  5
130
330
1F
100
AcDbEntity
  8
0
  6
Continuous
 62
     7
370
    25
100
AcDbSpline
210
0.0
220
0.0
230
1.0
 70
     8
 71
     3
 72
    25
 73
    21
 74
     0
 42
0.00000001
 43
0.00000001
 40
0.0
 40
0.0
 40
0.0
 40
0.0
 40
0.031087374913745
 40
0.0907852873530911
 40
0.1507040968075078
 40
0.2108334388599711
 40
0.2711402336252152
 40
0.331563066318535
 40
0.3920305222459409
 40
0.4524567286145677
 40
0.5127519317552125
 40
0.5728414391005616
 40
0.6326591996644951
 40
0.6921676385348852
 40
0.7514033806207534
 40
0.810550764489981
 40
0.8699577179240428
 40
0.9305376937507117
 40
0.9938781959802985
 40
1.0
 40
1.0
 40
1.0
 40
1.0
 10
386.1501718236718
 20
-195.5475255720366
 30
0.0
 10
386.1467381022586
 20
-195.728844288718
 30
0.0
 10
386.1367105143373
 20
-196.2583541570192
 30
0.0
 10
386.0230306392756
 20
-197.2007914311627
 30
0.0
 10
385.7654752194954
 20
-198.3728438099951
 30
0.0
 10
385.3805706168837
 20
-199.5763726344337
 30
0.0
 10
384.8772354933388
 20
-200.7820697220631
 30
0.0
 10
384.2650705660049
 20
-201.9627869700612
 30
0.0
 10
383.5576452292767
 20
-203.0912820928038
 30
0.0
 10
382.7712561323095
 20
-204.141760964327
 30
0.0
 10
381.9247833458141
 20
-205.0905033064651
 30
0.0
 10
381.0391864693712
 20
-205.9166793084864
 30
0.0
 10
380.1370368026998
 20
-206.6031308207179
 30
0.0
 10
379.2420474607659
 20
-207.1370321042852
 30
0.0
 10
378.3778221886452
 20
-207.5114197258229
 30
0.0
 10
377.5678932670988
 20
-207.7236957758605
 30
0.0
 10
376.8276943387916
 20
-207.7843885353799
 30
0.0
 10
376.1754165075441
 20
-207.6831768982826
 30
0.0
 10
375.7597031904515
 20
-207.5582162560546
 30
0.0
 10
375.5785223072459
 20
-207.4175352031538
 30
0.0
 10
375.5625545987289
 20
-207.4051367977214
 30
0.0
  0
SPLINE
  5
131
330
1F
100
AcDbEntity
  8
0
  6
Continuous
 62
     7
370
    25
100
AcDbSpline
210
0.0
220
0.0
230
1.0
 70
     8
 71
     3
 72
    14
 73
    10
 74
     0
 42
0.00000001
 43
0.00000001
 40
0.0
 40
0.0
 40
0.0
 40
0.0
 40
0.049780331026034
 40
0.2515460809320499
 40
0.4277046355514286
 40
0.6152365469701289
 40
0.7955769620302402
 40
0.9624198577147094
 40
1.0
 40
1.0
 40
1.0
 40
1.0
 10
429.4872082276196
 20
-40.37241562862971
 30
0.0
 10
429.5382864518238
 20
-40.39375354794274
 30
0.0
 10
429.7963909451987
 20
-40.50157665533885
 30
0.0
 10
430.1485764031966
 20
-40.83265482059309
 30
0.0
 10
430.5674578776078
 20
-41.3927044169269
 30
0.0
 10
430.880351585095
 20
-42.10397594910614
 30
0.0
 10
431.0823600860238
 20
-42.95228995652488
 30
0.0
 10
431.1463205537192
 20
-43.64975356827858
 30
0.0
 10
431.1495737684255
 20
-44.0440760526962
 30
0.0
 10
431.1501718236777
 20
-44.11656639046771
 30
0.0
  0
SPLINE
  5
132
330
1F
100
AcDbEntity
  8
0
  6
Continuous
 62
     7
370
    25
100
AcDbSpline
210
0.0
220
0.0
230
1.0
 70
     8
 71
     3
 72
    25
 73
    21
 74
     0
 42
0.00000001
 43
0.00000001
 40
0.0
 40
0.0
 40
0.0
 40
0.0
 40
0.031087374913745
 40
0.0907852873530857
 40
0.1507040968075045
 40
0.2108334388599624
 40
0.2711402336252067
 40
0.3315630663185288
 40
0.3920305222459348
 40
0.4524567286145651
 40
0.512751931755207
 40
0.5728414391005608
 40
0.6326591996644942
 40
0.6921676385348837
 40
0.7514033806207518
 40
0.8105507644899791
 40
0.8699577179240425
 40
0.9305376937507117
 40
0.9938781959802983
 40
1.0
 40
1.0
 40
1.0
 40
1.0
 10
431.1501718236777
 20
-44.11656639046771
 30
0.0
 10
431.1467381022646
 20
-44.29788510714904
 30
0.0
 10
431.1367105143432
 20
-44.82739497545027
 30
0.0
 10
431.0230306392816
 20
-45.76983224959359
 30
0.0
 10
430.7654752195014
 20
-46.94188462842611
 30
0.0
 10
430.3805706168897
 20
-48.14541345286459
 30
0.0
 10
429.8772354933448
 20
-49.35111054049407
 30
0.0
 10
429.2650705660109
 20
-50.53182778849209
 30
0.0
 10
428.5576452292826
 20
-51.66032291123483
 30
0.0
 10
427.7712561323156
 20
-52.71080178275801
 30
0.0
 10
426.9247833458202
 20
-53.65954412489616
 30
0.0
 10
426.0391864693772
 20
-54.48572012691748
 30
0.0
 10
425.1370368027058
 20
-55.17217163914894
 30
0.0
 10
424.2420474607719
 20
-55.7060729227162
 30
0.0
 10
423.3778221886512
 20
-56.08046054425387
 30
0.0
 10
422.5678932671048
 20
-56.29273659429155
 30
0.0
 10
421.8276943387975
 20
-56.35342935381097
 30
0.0
 10
421.17541650755
 20
-56.25221771671359
 30
0.0
 10
420.7597031904574
 20
-56.12725707448582
 30
0.0
 10
420.5785223072518
 20
-55.98657602158482
 30
0.0
 10
420.5625545987349
 20
-55.97417761615246
 30
0.0
  0
SPLINE
  5
133
330
1F
100
AcDbEntity
  8
0
  6
Continuous
 62
     7
370
    25
100
AcDbSpline
210
0.0
220
0.0
230
1.0
 70
     8
 71
     3
 72
    14
 73
    10
 74
     0
 42
0.00000001
 43
0.00000001
 40
0.0
 40
0.0
 40
0.0
 40
0.0
 40
0.0497803310260029
 40
0.2515460809320137
 40
0.4277046355513999
 40
0.6152365469700968
 40
0.7955769620301965
 40
0.9624198577146628
 40
1.0
 40
1.0
 40
1.0
 40
1.0
 10
339.4872082276137
 20
-196.2569878523262
 30
0.0
 10
339.5382864518178
 20
-196.2783257716392
 30
0.0
 10
339.7963909451927
 20
-196.3861488790352
 30
0.0
 10
340.1485764031906
 20
-196.7172270442895
 30
0.0
 10
340.5674578776018
 20
-197.2772766406232
 30
0.0
 10
340.880351585089
 20
-197.9885481728025
 30
0.0
 10
341.0823600860178
 20
-198.8368621802212
 30
0.0
 10
341.1463205537133
 20
-199.5343257919749
 30
0.0
 10
341.1495737684196
 20
-199.9286482763926
 30
0.0
 10
341.1501718236719
 20
-200.0011386141642
 30
0.0
  0
SPLINE
  5
134
330
1F
100
AcDbEntity
  8
0
  6
Continuous
 62
     7
370
    25
100
AcDbSpline
210
0.0
220
0.0
230
1.0
 70
     8
 71
     3
 72
    25
 73
    21
 74
     0
 42
0.00000001
 43
0.00000001
 40
0.0
 40
0.0
 40
0.0
 40
0.0
 40
0.0310873749137449
 40
0.0907852873530936
 40
0.150704096807511
 40
0.2108334388599711
 40
0.2711402336252149
 40
0.3315630663185356
 40
0.3920305222459423
 40
0.4524567286145685
 40
0.5127519317552133
 40
0.572841439100567
 40
0.6326591996645002
 40
0.6921676385348864
 40
0.7514033806207506
 40
0.8105507644899734
 40
0.8699577179240404
 40
0.9305376937507104
 40
0.9938781959802915
 40
1.0
 40
1.0
 40
1.0
 40
1.0
 10
341.1501718236719
 20
-200.0011386141642
 30
0.0
 10
341.1467381022587
 20
-200.1824573308455
 30
0.0
 10
341.1367105143374
 20
-200.7119671991468
 30
0.0
 10
341.0230306392757
 20
-201.6544044732902
 30
0.0
 10
340.7654752194954
 20
-202.8264568521228
 30
0.0
 10
340.3805706168837
 20
-204.0299856765613
 30
0.0
 10
339.8772354933388
 20
-205.2356827641907
 30
0.0
 10
339.265070566005
 20
-206.4164000121887
 30
0.0
 10
338.5576452292767
 20
-207.5448951349314
 30
0.0
 10
337.7712561323096
 20
-208.5953740064546
 30
0.0
 10
336.9247833458142
 20
-209.5441163485928
 30
0.0
 10
336.0391864693711
 20
-210.3702923506141
 30
0.0
 10
335.1370368026999
 20
-211.0567438628455
 30
0.0
 10
334.2420474607659
 20
-211.5906451464128
 30
0.0
 10
333.3778221886453
 20
-211.9650327679503
 30
0.0
 10
332.5678932670989
 20
-212.1773088179881
 30
0.0
 10
331.8276943387916
 20
-212.2380015775074
 30
0.0
 10
331.1754165075441
 20
-212.1367899404102
 30
0.0
 10
330.7597031904515
 20
-212.0118292981822
 30
0.0
 10
330.5785223072459
 20
-211.8711482452813
 30
0.0
 10
330.562554598729
 20
-211.8587498398489
 30
0.0
  0
SPLINE
  5
135
330
1F
100
AcDbEntity
  8
0
  6
Continuous
 62
     7
370
    25
100
AcDbSpline
210
0.0
220
0.0
230
1.0
 70
     8
 71
     3
 72
    14
 73
    10
 74
     0
 42
0.00000001
 43
0.00000001
 40
0.0
 40
0.0
 40
0.0
 40
0.0
 40
0.0497803310260493
 40
0.2515460809320677
 40
0.4277046355514567
 40
0.6152365469701611
 40
0.7955769620302607
 40
0.9624198577147333
 40
1.0
 40
1.0
 40
1.0
 40
1.0
 10
384.4872082276197
 20
-44.8260286707573
 30
0.0
 10
384.5382864518239
 20
-44.84736659007032
 30
0.0
 10
384.7963909451988
 20
-44.95518969746644
 30
0.0
 10
385.1485764031967
 20
-45.28626786272075
 30
0.0
 10
385.5674578776079
 20
-45.84631745905454
 30
0.0
 10
385.8803515850951
 20
-46.55758899123381
 30
0.0
 10
386.0823600860239
 20
-47.40590299865255
 30
0.0
 10
386.1463205537193
 20
-48.10336661040628
 30
0.0
 10
386.1495737684256
 20
-48.4976890948238
 30
0.0
 10
386.1501718236779
 20
-48.57017943259525
 30
0.0
  0
SPLINE
  5
136
330
1F
100
AcDbEntity
  8
0
  6
Continuous
 62
     7
370
    25
100
AcDbSpline
210
0.0
220
0.0
230
1.0
 70
     8
 71
     3
 72
    25
 73
    21
 74
     0
 42
0.00000001
 43
0.00000001
 40
0.0
 40
0.0
 40
0.0
 40
0.0
 40
0.0310873749137449
 40
0.0907852873530908
 40
0.1507040968075073
 40
0.2108334388599703
 40
0.2711402336252143
 40
0.3315630663185338
 40
0.3920305222459394
 40
0.4524567286145661
 40
0.5127519317552107
 40
0.57284143910056
 40
0.6326591996644934
 40
0.6921676385348833
 40
0.7514033806207513
 40
0.8105507644899783
 40
0.8699577179240445
 40
0.9305376937507126
 40
0.9938781959802981
 40
1.0
 40
1.0
 40
1.0
 40
1.0
 10
386.1501718236779
 20
-48.57017943259522
 30
0.0
 10
386.1467381022646
 20
-48.75149814927656
 30
0.0
 10
386.1367105143433
 20
-49.28100801757783
 30
0.0
 10
386.0230306392817
 20
-50.22344529172121
 30
0.0
 10
385.7654752195015
 20
-51.39549767055375
 30
0.0
 10
385.3805706168897
 20
-52.59902649499229
 30
0.0
 10
384.8772354933449
 20
-53.80472358262175
 30
0.0
 10
384.2650705660109
 20
-54.98544083061981
 30
0.0
 10
383.5576452292826
 20
-56.11393595336249
 30
0.0
 10
382.7712561323156
 20
-57.1644148248856
 30
0.0
 10
381.9247833458202
 20
-58.11315716702378
 30
0.0
 10
381.0391864693772
 20
-58.93933316904501
 30
0.0
 10
380.1370368027059
 20
-59.62578468127654
 30
0.0
 10
379.242047460772
 20
-60.15968596484378
 30
0.0
 10
378.3778221886512
 20
-60.53407358638142
 30
0.0
 10
377.5678932671048
 20
-60.74634963641913
 30
0.0
 10
376.8276943387975
 20
-60.80704239593848
 30
0.0
 10
376.1754165075501
 20
-60.70583075884122
 30
0.0
 10
375.7597031904574
 20
-60.58087011661323
 30
0.0
 10
375.5785223072519
 20
-60.44018906371236
 30
0.0
 10
375.5625545987349
 20
-60.42779065828001
 30
0.0
  0
SPLINE
  5
137
330
1F
100
AcDbEntity
  8
0
  6
Continuous
 62
     7
370
    25
100
AcDbSpline
210
0.0
220
0.0
230
1.0
 70
     8
 71
     3
 72
    14
 73
    10
 74
     0
 42
0.00000001
 43
0.00000001
 40
0.0
 40
0.0
 40
0.0
 40
0.0
 40
0.0497803310260108
 40
0.2515460809320114
 40
0.427704635551403
 40
0.6152365469701142
 40
0.7955769620302224
 40
0.9624198577146872
 40
1.0
 40
1.0
 40
1.0
 40
1.0
 10
320.8475979208263
 20
-155.0530667724972
 30
0.0
 10
320.8986761450303
 20
-155.0744046918102
 30
0.0
 10
321.1567806384052
 20
-155.1822277992063
 30
0.0
 10
321.5089660964031
 20
-155.5133059644605
 30
0.0
 10
321.9278475708144
 20
-156.0733555607943
 30
0.0
 10
322.2407412783015
 20
-156.7846270929735
 30
0.0
 10
322.4427497792304
 20
-157.6329411003923
 30
0.0
 10
322.5067102469258
 20
-158.330404712146
 30
0.0
 10
322.5099634616321
 20
-158.7247271965636
 30
0.0
 10
322.5105615168844
 20
-158.7972175343352
 30
0.0
  0
SPLINE
  5
138
330
1F
100
AcDbEntity
  8
0
  6
Continuous
 62
     7
370
    25
100
AcDbSpline
210
0.0
220
0.0
230
1.0
 70
     8
 71
     3
 72
    25
 73
    21
 74
     0
 42
0.00000001
 43
0.00000001
 40
0.0
 40
0.0
 40
0.0
 40
0.0
 40
0.0310873749137448
 40
0.0907852873530857
 40
0.1507040968075046
 40
0.2108334388599634
 40
0.2711402336252076
 40
0.3315630663185302
 40
0.3920305222459319
 40
0.4524567286145589
 40
0.512751931755202
 40
0.5728414391005552
 40
0.6326591996644864
 40
0.6921676385348772
 40
0.7514033806207466
 40
0.8105507644899741
 40
0.8699577179240395
 40
0.9305376937507104
 40
0.9938781959802937
 40
1.0
 40
1.0
 40
1.0
 40
1.0
 10
322.5105615168844
 20
-158.7972175343352
 30
0.0
 10
322.5071277954711
 20
-158.9785362510165
 30
0.0
 10
322.4971002075499
 20
-159.5080461193177
 30
0.0
 10
322.3834203324882
 20
-160.4504833934611
 30
0.0
 10
322.125864912708
 20
-161.6225357722936
 30
0.0
 10
321.7409603100963
 20
-162.8260645967321
 30
0.0
 10
321.2376251865514
 20
-164.0317616843615
 30
0.0
 10
320.6254602592176
 20
-165.2124789323596
 30
0.0
 10
319.9180349224893
 20
-166.3409740551022
 30
0.0
 10
319.1316458255223
 20
-167.3914529266253
 30
0.0
 10
318.2851730390269
 20
-168.3401952687635
 30
0.0
 10
317.3995761625839
 20
-169.1663712707848
 30
0.0
 10
316.4974264959126
 20
-169.8528227830163
 30
0.0
 10
315.6024371539786
 20
-170.3867240665836
 30
0.0
 10
314.7382118818578
 20
-170.7611116881213
 30
0.0
 10
313.9282829603115
 20
-170.973387738159
 30
0.0
 10
313.1880840320042
 20
-171.0340804976784
 30
0.0
 10
312.5358062007567
 20
-170.9328688605811
 30
0.0
 10
312.120092883664
 20
-170.8079082183532
 30
0.0
 10
311.9389120004585
 20
-170.6672271654523
 30
0.0
 10
311.9229442919416
 20
-170.6548287600199
 30
0.0
  0
SPLINE
  5
139
330
1F
100
AcDbEntity
  8
0
  6
Continuous
 62
     7
370
    25
100
AcDbSpline
210
0.0
220
0.0
230
1.0
 70
     8
 71
     3
 72
    14
 73
    10
 74
     0
 42
0.00000001
 43
0.00000001
 40
0.0
 40
0.0
 40
0.0
 40
0.0
 40
0.0497803310259818
 40
0.2515460809319837
 40
0.4277046355513707
 40
0.615236546970065
 40
0.7955769620301665
 40
0.9624198577146387
 40
1.0
 40
1.0
 40
1.0
 40
1.0
 10
339.4872082276179
 20
-92.32830971632477
 30
0.0
 10
339.538286451822
 20
-92.34964763563774
 30
0.0
 10
339.7963909451969
 20
-92.45747074303378
 30
0.0
 10
340.1485764031947
 20
-92.78854890828799
 30
0.0
 10
340.567457877606
 20
-93.34859850462168
 30
0.0
 10
340.8803515850933
 20
-94.05987003680086
 30
0.0
 10
341.082360086022
 20
-94.90818404421961
 30
0.0
 10
341.1463205537175
 20
-95.60564765597336
 30
0.0
 10
341.1495737684238
 20
-95.99997014039113
 30
0.0
 10
341.1501718236761
 20
-96.07246047816275
 30
0.0
  0
SPLINE
  5
13A
330
1F
100
AcDbEntity
  8
0
  6
Continuous
 62
     7
370
    25
100
AcDbSpline
210
0.0
220
0.0
230
1.0
 70
     8
 71
     3
 72
    25
 73
    21
 74
     0
 42
0.00000001
 43
0.00000001
 40
0.0
 40
0.0
 40
0.0
 40
0.0
 40
0.0310873749137449
 40
0.0907852873530856
 40
0.1507040968075019
 40
0.2108334388599648
 40
0.2711402336252086
 40
0.3315630663185319
 40
0.3920305222459332
 40
0.4524567286145596
 40
0.5127519317552044
 40
0.5728414391005555
 40
0.632659199664487
 40
0.6921676385348795
 40
0.7514033806207474
 40
0.8105507644899776
 40
0.8699577179240396
 40
0.9305376937507095
 40
0.9938781959802936
 40
1.0
 40
1.0
 40
1.0
 40
1.0
 10
341.1501718236761
 20
-96.07246047816275
 30
0.0
 10
341.1467381022629
 20
-96.2537791948441
 30
0.0
 10
341.1367105143416
 20
-96.78328906314532
 30
0.0
 10
341.02303063928
 20
-97.72572633728865
 30
0.0
 10
340.7654752194998
 20
-98.89777871612112
 30
0.0
 10
340.380570616888
 20
-100.1013075405597
 30
0.0
 10
339.8772354933432
 20
-101.3070046281892
 30
0.0
 10
339.2650705660093
 20
-102.4877218761872
 30
0.0
 10
338.557645229281
 20
-103.6162169989299
 30
0.0
 10
337.771256132314
 20
-104.666695870453
 30
0.0
 10
336.9247833458186
 20
-105.6154382125912
 30
0.0
 10
336.0391864693755
 20
-106.4416142146125
 30
0.0
 10
335.1370368027043
 20
-107.128065726844
 30
0.0
 10
334.2420474607703
 20
-107.6619670104112
 30
0.0
 10
333.3778221886495
 20
-108.0363546319489
 30
0.0
 10
332.5678932671031
 20
-108.2486306819866
 30
0.0
 10
331.8276943387959
 20
-108.309323441506
 30
0.0
 10
331.1754165075484
 20
-108.2081118044087
 30
0.0
 10
330.7597031904557
 20
-108.0831511621808
 30
0.0
 10
330.5785223072502
 20
-107.9424701092799
 30
0.0
 10
330.5625545987332
 20
-107.9300717038475
 30
0.0
  0
LWPOLYLINE
  5
13B
330
1F
100
AcDbEntity
  8
0
  6
Continuous
 62
     7
370
    25
100
AcDbPolyline
 90
      143
 70
   128
 43
0.0
 10
457.8608499423
 20
-80.4220387994
 10
457.7840271348
 20
-76.4572527161
 10
457.5537090965
 20
-72.5889256133
 10
457.1703466859
 20
-68.824629923
 10
456.6346903527
 20
-65.1717344307
 10
455.9477886695
 20
-61.637389851
 10
455.1109862786
 20
-58.2285148293
 10
454.1259212599
 20
-54.9517823985
 10
452.9945219244
 20
-51.8136069163
 10
451.7190030396
 20
-48.8201315086
 10
450.3018614934
 20
-45.9772160439
 10
448.7458714071
 20
-43.2904256629
 10
447.0540787043
 20
-40.7650198839
 10
445.2297951487
 20
-38.4059423073
 10
443.2765918609
 20
-36.2178109382
 10
441.1982923282
 20
-34.2049091465
 10
438.9989649195
 20
-32.3711772821
 10
436.6829149214
 20
-30.7202049611
 10
434.2546761106
 20
-29.2552240394
 10
431.7190018787
 20
-27.979102286
 10
429.0808559269
 20
-26.8943377691
 10
426.3454025499
 20
-26.0030539663
 10
423.5179965261
 20
-25.3069956073
 10
420.6041726355
 20
-24.8075252591
 10
417.6096348254
 20
-24.5056206584
 10
414.540245044
 20
-24.4018727976
 10
411.4020117661
 20
-24.4964847681
 10
408.2010782305
 20
-24.7892713624
 10
404.9437104151
 20
-25.2796594371
 10
401.6362847702
 20
-25.9666890344
 10
398.285275737
 20
-26.8490152617
 10
394.897243073
 20
-27.9249109239
 10
391.4788190111
 20
-29.1922699047
 10
388.036695277
 20
-30.6486112895
 10
384.5776099897
 20
-32.2910842216
 10
381.1083344709
 20
-34.1164734831
 10
377.6356599904
 20
-36.1212057888
 10
374.1663844716
 20
-38.301356781
 10
370.7072991842
 20
-40.6526587118
 10
367.2651754502
 20
-43.1705087973
 10
363.8467513883
 20
-45.8499782276
 10
360.4587187242
 20
-48.6858218157
 10
357.107709691
 20
-51.6724882643
 10
353.8002840462
 20
-54.8041310338
 10
350.5429162307
 20
-58.0746197863
 10
347.3419826952
 20
-61.4775523866
 10
344.2037494172
 20
-65.0062674342
 10
341.1343596358
 20
-68.6538573037
 10
338.1398218257
 20
-72.4131816667
 10
335.2259979352
 20
-76.2768814693
 10
332.3985919114
 20
-80.2373933375
 10
329.6631385344
 20
-84.2869643834
 10
327.0249925826
 20
-88.4176673816
 10
324.4893183506
 20
-92.621416287
 10
322.0610795398
 20
-96.8899820636
 10
319.7450295418
 20
-101.2150087935
 10
317.5457021331
 20
-105.5880300337
 10
315.4674026003
 20
-110.0004853899
 10
313.5141993126
 20
-114.4437372735
 10
311.6899157569
 20
-118.9090878102
 10
309.9981230541
 20
-123.3877958666
 10
308.4421329678
 20
-127.8710941615
 10
307.0249914217
 20
-132.3502064279
 10
305.7494725368
 20
-136.8163645932
 10
304.6180732014
 20
-141.260825943
 10
303.6330081827
 20
-145.6748902356
 10
302.7962057917
 20
-150.0499167328
 10
302.1093041085
 20
-154.3773411148
 10
301.5736477754
 20
-158.6486922451
 10
301.1902853647
 20
-162.8556087533
 10
300.9599673264
 20
-166.9898554028
 10
300.8831445189
 20
-171.0433392117
 10
300.9599673264
 20
-175.008125295
 10
301.1902853647
 20
-178.8764523978
 10
301.5736477754
 20
-182.6407480881
 10
302.1093041085
 20
-186.2936435803
 10
302.7962057917
 20
-189.82798816
 10
303.6330081827
 20
-193.2368631817
 10
304.6180732014
 20
-196.5135956125
 10
305.7494725368
 20
-199.6517710947
 10
307.0249914217
 20
-202.6452465025
 10
308.4421329678
 20
-205.4881619671
 10
309.9981230541
 20
-208.1749523481
 10
311.6899157569
 20
-210.7003581271
 10
313.5141993126
 20
-213.0594357038
 10
315.4674026003
 20
-215.2475670729
 10
317.5457021331
 20
-217.2604688645
 10
319.7450295418
 20
-219.094200729
 10
322.0610795398
 20
-220.7451730499
 10
324.4893183506
 20
-222.2101539716
 10
327.0249925826
 20
-223.486275725
 10
329.6631385344
 20
-224.5710402419
 10
332.3985919114
 20
-225.4623240448
 10
335.2259979352
 20
-226.1583824038
 10
338.1398218257
 20
-226.6578527519
 10
341.1343596358
 20
-226.9597573526
 10
344.2037494172
 20
-227.0635052134
 10
347.3419826952
 20
-226.9688932429
 10
350.5429162307
 20
-226.6761066486
 10
353.8002840462
 20
-226.185718574
 10
357.107709691
 20
-225.4986889766
 10
360.4587187242
 20
-224.6163627494
 10
363.8467513883
 20
-223.5404670872
 10
367.2651754502
 20
-222.2731081063
 10
370.7072991842
 20
-220.8167667215
 10
374.1663844716
 20
-219.1742937894
 10
377.6356599904
 20
-217.3489045279
 10
381.1083344709
 20
-215.3441722223
 10
384.5776099897
 20
-213.1640212301
 10
388.036695277
 20
-210.8127192992
 10
391.4788190111
 20
-208.2948692138
 10
394.897243073
 20
-205.6153997834
 10
398.285275737
 20
-202.7795561954
 10
401.6362847702
 20
-199.7928897467
 10
404.9437104151
 20
-196.6612469772
 10
408.2010782305
 20
-193.3907582247
 10
411.4020117661
 20
-189.9878256245
 10
414.540245044
 20
-186.4591105769
 10
417.6096348254
 20
-182.8115207073
 10
420.6041726355
 20
-179.0521963443
 10
423.5179965261
 20
-175.1884965418
 10
426.3454025499
 20
-171.2279846736
 10
429.0808559269
 20
-167.1784136276
 10
431.7190018787
 20
-163.0477106294
 10
434.2546761106
 20
-158.8439617241
 10
436.6829149214
 20
-154.5753959475
 10
438.9989649195
 20
-150.2503692176
 10
441.1982923282
 20
-145.8773479773
 10
443.2765918609
 20
-141.4648926211
 10
445.2297951487
 20
-137.0216407376
 10
447.0540787043
 20
-132.5562902009
 10
448.7458714071
 20
-128.0775821444
 10
450.3018614934
 20
-123.5942838495
 10
451.7190030396
 20
-119.1151715831
 10
452.9945219244
 20
-114.6490134178
 10
454.1259212599
 20
-110.204552068
 10
455.1109862786
 20
-105.7904877754
 10
455.9477886695
 20
-101.4154612782
 10
456.6346903527
 20
-97.0880368963
 10
457.1703466859
 20
-92.816685766
 10
457.5537090965
 20
-88.6097692577
 10
457.7840271348
 20
-84.4755226082
 10
457.8608499423
 20
-80.4220387994
  0
ARC
  5
13C
330
1F
100
AcDbEntity
  8
0
  6
Continuous
 62
     7
370
    25
100
AcDbCircle
 10
343.0190765576
 20
-190.3421310928
 30
0.0
 40
37.86663182070892
100
AcDbArc
 50
225.3984860023
 51
255.3782884254
  0
ARC
  5
13D
330
1F
100
AcDbEntity
  8
0
  6
Continuous
 62
     7
370
    25
100
AcDbCircle
 10
417.1377781325
 20
-61.9481393392
 30
0.0
 40
37.87464350730523
100
AcDbArc
 50
44.68101571
 51
75.0385916889
  0
ARC
  5
13E
330
1F
100
AcDbEntity
  8
0
  6
Continuous
 62
     7
370
    25
100
AcDbCircle
 10
429.6792212501
 20
-69.5178495278
 30
0.0
 40
38.16366665828161
100
AcDbArc
 50
44.4838776759
 51
59.9281685243
  0
ARC
  5
13F
330
1F
100
AcDbEntity
  8
0
  6
Continuous
 62
     7
370
    25
100
AcDbCircle
 10
355.8475916167
 20
-197.402449405
 30
0.0
 40
38.16927728398934
100
AcDbArc
 50
240.0842452137
 51
254.5771190837
  0
LWPOLYLINE
  5
140
330
1F
100
AcDbEntity
  8
0
  6
Continuous
 62
     7
370
    25
100
AcDbPolyline
 90
       43
 70
   128
 43
0.0
 10
322.8034547357
 20
-158.3890134784
 10
322.7244767505
 20
-159.6515974291
 10
322.4893070327
 20
-160.9771633813
 10
322.1031988852
 20
-162.3361003823
 10
321.5747773258
 20
-163.6980520249
 10
320.9158464192
 20
-165.03259456
 10
320.1411255928
 20
-166.3099165127
 10
319.2679208298
 20
-167.5014846212
 10
318.3157380816
 20
-168.580681223
 10
317.3058475374
 20
-169.5233988493
 10
316.2608084832
 20
-170.3085787462
 10
315.2039653645
 20
-170.9186812922
 10
314.1589263103
 20
-171.3400778046
 10
313.1490357661
 20
-171.5633549817
 10
312.1968530179
 20
-171.5835251803
 10
311.3236482549
 20
-171.4001378314
 10
310.5489274285
 20
-171.0172895055
 10
309.8899965219
 20
-170.4435324014
 10
309.3615749625
 20
-169.6916833048
 10
308.9754668149
 20
-168.7785372822
 10
308.7402970971
 20
-167.7244925066
 10
308.661319112
 20
-166.5530945967
 10
308.7402970971
 20
-165.290510646
 10
308.9754668149
 20
-163.9649446937
 10
309.3615749625
 20
-162.6060076928
 10
309.8899965219
 20
-161.2440560502
 10
310.5489274285
 20
-159.9095135151
 10
311.3236482549
 20
-158.6321915624
 10
312.1968530179
 20
-157.4406234539
 10
313.1490357661
 20
-156.3614268521
 10
314.1589263103
 20
-155.4187092258
 10
315.2039653645
 20
-154.6335293289
 10
316.2608084832
 20
-154.0234267829
 10
317.3058475374
 20
-153.6020302704
 10
318.3157380816
 20
-153.3787530934
 10
319.2679208298
 20
-153.3585828948
 10
320.1411255928
 20
-153.5419702436
 10
320.9158464192
 20
-153.9248185696
 10
321.5747773258
 20
-154.4985756736
 10
322.1031988852
 20
-155.2504247702
 10
322.4893070327
 20
-156.1635707929
 10
322.7244767505
 20
-157.2176155685
 10
322.8034547357
 20
-158.3890134784
  0
LWPOLYLINE
  5
141
330
1F
100
AcDbEntity
  8
0
  6
Continuous
 62
     7
370
    25
100
AcDbPolyline
 90
       43
 70
   128
 43
0.0
 10
431.4430650425
 20
-147.6370404706
 10
431.3640870573
 20
-148.8996244212
 10
431.1289173395
 20
-150.2251903735
 10
430.7428091919
 20
-151.5841273744
 10
430.2143876326
 20
-152.946079017
 10
429.5554567259
 20
-154.2806215521
 10
428.7807358996
 20
-155.5579435048
 10
427.9075311366
 20
-156.7495116133
 10
426.9553483884
 20
-157.8287082151
 10
425.9454578442
 20
-158.7714258414
 10
424.90041879
 20
-159.5566057383
 10
423.8435756713
 20
-160.1667082843
 10
422.7985366171
 20
-160.5881047968
 10
421.7886460729
 20
-160.8113819739
 10
420.8364633247
 20
-160.8315521724
 10
419.9632585617
 20
-160.6481648236
 10
419.1885377353
 20
-160.2653164976
 10
418.5296068286
 20
-159.6915593936
 10
418.0011852693
 20
-158.939710297
 10
417.6150771217
 20
-158.0265642743
 10
417.3799074039
 20
-156.9725194987
 10
417.3009294188
 20
-155.8011215888
 10
417.3799074039
 20
-154.5385376381
 10
417.6150771217
 20
-153.2129716859
 10
418.0011852693
 20
-151.8540346849
 10
418.5296068286
 20
-150.4920830423
 10
419.1885377353
 20
-149.1575405072
 10
419.9632585617
 20
-147.8802185545
 10
420.8364633247
 20
-146.688650446
 10
421.7886460729
 20
-145.6094538442
 10
422.7985366171
 20
-144.6667362179
 10
423.8435756713
 20
-143.881556321
 10
424.90041879
 20
-143.271453775
 10
425.9454578442
 20
-142.8500572626
 10
426.9553483884
 20
-142.6267800855
 10
427.9075311366
 20
-142.6066098869
 10
428.7807358996
 20
-142.7899972358
 10
429.5554567259
 20
-143.1728455617
 10
430.2143876326
 20
-143.7466026658
 10
430.7428091919
 20
-144.4984517624
 10
431.1289173395
 20
-145.4115977851
 10
431.3640870573
 20
-146.4656425606
 10
431.4430650425
 20
-147.6370404706
  0
LWPOLYLINE
  5
142
330
1F
100
AcDbEntity
  8
0
  6
Continuous
 62
     7
370
    25
100
AcDbPolyline
 90
       43
 70
   128
 43
0.0
 10
431.4430650425
 20
-43.7083623346
 10
431.3640870573
 20
-44.9709462852
 10
431.1289173395
 20
-46.2965122375
 10
430.7428091919
 20
-47.6554492384
 10
430.2143876326
 20
-49.017400881
 10
429.5554567259
 20
-50.3519434161
 10
428.7807358996
 20
-51.6292653688
 10
427.9075311366
 20
-52.8208334773
 10
426.9553483884
 20
-53.9000300791
 10
425.9454578442
 20
-54.8427477054
 10
424.90041879
 20
-55.6279276023
 10
423.8435756713
 20
-56.2380301483
 10
422.7985366171
 20
-56.6594266608
 10
421.7886460729
 20
-56.8827038379
 10
420.8364633247
 20
-56.9028740364
 10
419.9632585617
 20
-56.7194866876
 10
419.1885377353
 20
-56.3366383616
 10
418.5296068286
 20
-55.7628812576
 10
418.0011852693
 20
-55.011032161
 10
417.6150771217
 20
-54.0978861383
 10
417.3799074039
 20
-53.0438413627
 10
417.3009294188
 20
-51.8724434528
 10
417.3799074039
 20
-50.6098595021
 10
417.6150771217
 20
-49.2842935499
 10
418.0011852693
 20
-47.9253565489
 10
418.5296068286
 20
-46.5634049063
 10
419.1885377353
 20
-45.2288623712
 10
419.9632585617
 20
-43.9515404185
 10
420.8364633247
 20
-42.75997231
 10
421.7886460729
 20
-41.6807757082
 10
422.7985366171
 20
-40.7380580819
 10
423.8435756713
 20
-39.952878185
 10
424.90041879
 20
-39.342775639
 10
425.9454578442
 20
-38.9213791266
 10
426.9553483884
 20
-38.6981019495
 10
427.9075311366
 20
-38.6779317509
 10
428.7807358996
 20
-38.8613190998
 10
429.5554567259
 20
-39.2441674257
 10
430.2143876326
 20
-39.8179245298
 10
430.7428091919
 20
-40.5697736264
 10
431.1289173395
 20
-41.4829196491
 10
431.3640870573
 20
-42.5369644246
 10
431.4430650425
 20
-43.7083623346
  0
LWPOLYLINE
  5
143
330
1F
100
AcDbEntity
  8
0
  6
Continuous
 62
     7
370
    25
100
AcDbPolyline
 90
       43
 70
   128
 43
0.0
 10
386.4430650425
 20
-48.1619753767
 10
386.3640870573
 20
-49.4245593273
 10
386.1289173395
 20
-50.7501252796
 10
385.7428091919
 20
-52.1090622806
 10
385.2143876326
 20
-53.4710139232
 10
384.5554567259
 20
-54.8055564583
 10
383.7807358996
 20
-56.0828784109
 10
382.9075311366
 20
-57.2744465194
 10
381.9553483884
 20
-58.3536431212
 10
380.9454578442
 20
-59.2963607476
 10
379.90041879
 20
-60.0815406445
 10
378.8435756713
 20
-60.6916431905
 10
377.7985366171
 20
-61.1130397029
 10
376.7886460729
 20
-61.33631688
 10
375.8364633247
 20
-61.3564870786
 10
374.9632585617
 20
-61.1730997297
 10
374.1885377353
 20
-60.7902514038
 10
373.5296068286
 20
-60.2164942997
 10
373.0011852693
 20
-59.4646452031
 10
372.6150771217
 20
-58.5514991804
 10
372.3799074039
 20
-57.4974544048
 10
372.3009294188
 20
-56.3260564949
 10
372.3799074039
 20
-55.0634725443
 10
372.6150771217
 20
-53.737906592
 10
373.0011852693
 20
-52.378969591
 10
373.5296068286
 20
-51.0170179484
 10
374.1885377353
 20
-49.6824754133
 10
374.9632585617
 20
-48.4051534607
 10
375.8364633247
 20
-47.2135853522
 10
376.7886460729
 20
-46.1343887504
 10
377.7985366171
 20
-45.191671124
 10
378.8435756713
 20
-44.4064912271
 10
379.90041879
 20
-43.7963886811
 10
380.9454578442
 20
-43.3749921687
 10
381.9553483884
 20
-43.1517149916
 10
382.9075311366
 20
-43.131544793
 10
383.7807358996
 20
-43.3149321419
 10
384.5554567259
 20
-43.6977804678
 10
385.2143876326
 20
-44.2715375719
 10
385.7428091919
 20
-45.0233866685
 10
386.1289173395
 20
-45.9365326912
 10
386.3640870573
 20
-46.9905774668
 10
386.4430650425
 20
-48.1619753767
  0
LWPOLYLINE
  5
144
330
1F
100
AcDbEntity
  8
0
  6
Continuous
 62
     7
370
    25
100
AcDbPolyline
 90
      112
 70
   128
 43
0.0
 10
427.8088117419
 20
-97.7707111756
 10
427.7312328822
 20
-100.9799113046
 10
427.4987448116
 20
-104.268402043
 10
427.1120922595
 20
-107.6256493634
 10
426.5725137906
 20
-111.0408989907
 10
425.8817378373
 20
-114.5032108506
 10
425.0419771633
 20
-118.0014941144
 10
424.0559217752
 20
-121.5245427262
 10
422.9267303057
 20
-125.0610712992
 10
421.6580198955
 20
-128.5997512662
 10
420.2538546066
 20
-132.1292471684
 10
418.7187324035
 20
-135.6382529665
 10
417.0575707457
 20
-139.1155282568
 10
415.2756908346
 20
-142.5499342785
 10
413.3788005688
 20
-145.9304695936
 10
411.3729762598
 20
-149.2463053283
 10
409.2646431674
 20
-152.4868198611
 10
407.0605549181
 20
-155.6416328472
 10
404.7677718712
 20
-158.7006384693
 10
402.3936385019
 20
-161.6540378102
 10
399.9457598752
 20
-164.4923702415
 10
397.4319772842
 20
-167.2065437287
 10
394.8603431325
 20
-169.787863956
 10
392.2390951395
 20
-172.2280621763
 10
389.5766299528
 20
-174.5193216991
 10
386.881476251
 20
-176.6543029295
 10
384.162267424
 20
-178.6261668788
 10
381.4277139175
 20
-180.4285970725
 10
378.6865753306
 20
-182.0558197831
 10
375.9476323567
 20
-183.5026225259
 10
373.2196586559
 20
-184.7643707553
 10
370.5113927503
 20
-185.8370227116
 10
367.8315100321
 20
-186.717142367
 10
365.1885949736
 20
-187.401910433
 10
362.5911136285
 20
-187.889133391
 10
360.0473865125
 20
-188.177250519
 10
357.5655619506
 20
-188.265338891
 10
355.153589975
 20
-188.1531163334
 10
352.8191968591
 20
-187.8409423288
 10
350.5698603677
 20
-187.3298168648
 10
348.4127858039
 20
-186.6213772301
 10
346.3548829277
 20
-185.7178927707
 10
344.4027438225
 20
-184.6222576196
 10
342.5626217783
 20
-183.3379814264
 10
340.8404112607
 20
-181.8691781151
 10
339.2416290294
 20
-180.2205527054
 10
337.7713964657
 20
-178.3973862415
 10
336.4344231678
 20
-176.4055188752
 10
335.2349918643
 20
-174.2513311583
 10
334.1769446952
 20
-171.9417236034
 10
333.2636709045
 20
-169.4840945798
 10
332.4980959836
 20
-166.8863166142
 10
331.8826722996
 20
-164.1567111725
 10
331.4193712403
 20
-161.304022004
 10
331.1096768986
 20
-158.337387132
 10
330.9545813188
 20
-155.2663095824
 10
330.9545813188
 20
-152.1006269424
 10
331.1096768986
 20
-148.8504798479
 10
331.4193712403
 20
-145.5262794999
 10
331.8826722996
 20
-142.1386743143
 10
332.4980959836
 20
-138.6985158117
 10
333.2636709045
 20
-135.216823857
 10
334.1769446952
 20
-131.7047513592
 10
335.2349918643
 20
-128.1735485452
 10
336.4344231678
 20
-124.6345269222
 10
337.7713964657
 20
-121.0990230435
 10
339.2416290294
 20
-117.5783621937
 10
340.8404112607
 20
-114.0838221111
 10
342.5626217783
 20
-110.626596861
 10
344.4027438225
 20
-107.2177609781
 10
346.3548829277
 20
-103.8682339915
 10
348.4127858039
 20
-100.5887454459
 10
350.5698603677
 20
-97.3898005318
 10
352.8191968591
 20
-94.2816464341
 10
355.153589975
 20
-91.2742395076
 10
357.5655619506
 20
-88.3772133831
 10
360.0473865125
 20
-85.5998481088
 10
362.5911136285
 20
-82.951040423
 10
365.1885949736
 20
-80.4392752551
 10
367.8315100321
 20
-78.0725985464
 10
370.5113927503
 20
-75.8585914757
 10
373.2196586559
 20
-73.8043461752
 10
375.9476323567
 20
-71.9164430119
 10
378.6865753306
 20
-70.2009295088
 10
381.4277139175
 20
-68.6633009729
 10
384.162267424
 20
-67.3084828918
 10
386.881476251
 20
-66.1408151563
 10
389.5766299528
 20
-65.1640381582
 10
392.2390951395
 20
-64.3812808088
 10
394.8603431325
 20
-63.7950505157
 10
397.4319772842
 20
-63.4072251514
 10
399.9457598752
 20
-63.2190470374
 10
402.3936385019
 20
-63.2311189649
 10
404.7677718712
 20
-63.443402264
 10
407.0605549181
 20
-63.8552169271
 10
409.2646431674
 20
-64.4652437879
 10
411.3729762598
 20
-65.2715287463
 10
413.3788005688
 20
-66.2714890285
 10
415.2756908346
 20
-67.4619214604
 10
417.0575707457
 20
-68.8390127279
 10
418.7187324035
 20
-70.3983515925
 10
420.2538546066
 20
-72.1349430219
 10
421.6580198955
 20
-74.04322419
 10
422.9267303057
 20
-76.117082297
 10
424.0559217752
 20
-78.3498741501
 10
425.0419771633
 20
-80.734447444
 10
425.8817378373
 20
-83.2631636715
 10
426.5725137906
 20
-85.9279225921
 10
427.1120922595
 20
-88.7201881797
 10
427.4987448116
 20
-91.6310159657
 10
427.7312328822
 20
-94.6510816914
 10
427.8088117419
 20
-97.7707111756
  0
LWPOLYLINE
  5
145
330
1F
100
AcDbEntity
  8
0
  6
Continuous
 62
     7
370
    25
100
AcDbPolyline
 90
       43
 70
   128
 43
0.0
 10
386.4430650425
 20
-195.1393215161
 10
386.3640870573
 20
-196.4019054668
 10
386.1289173395
 20
-197.727471419
 10
385.7428091919
 20
-199.08640842
 10
385.2143876326
 20
-200.4483600626
 10
384.5554567259
 20
-201.7829025977
 10
383.7807358996
 20
-203.0602245504
 10
382.9075311366
 20
-204.2517926589
 10
381.9553483884
 20
-205.3309892607
 10
380.9454578442
 20
-206.273706887
 10
379.90041879
 20
-207.0588867839
 10
378.8435756713
 20
-207.6689893299
 10
377.7985366171
 20
-208.0903858423
 10
376.7886460729
 20
-208.3136630194
 10
375.8364633247
 20
-208.333833218
 10
374.9632585617
 20
-208.1504458691
 10
374.1885377353
 20
-207.7675975432
 10
373.5296068286
 20
-207.1938404391
 10
373.0011852693
 20
-206.4419913425
 10
372.6150771217
 20
-205.5288453199
 10
372.3799074039
 20
-204.4748005443
 10
372.3009294188
 20
-203.3034026344
 10
372.3799074039
 20
-202.0408186837
 10
372.6150771217
 20
-200.7152527314
 10
373.0011852693
 20
-199.3563157305
 10
373.5296068286
 20
-197.9943640879
 10
374.1885377353
 20
-196.6598215528
 10
374.9632585617
 20
-195.3824996001
 10
375.8364633247
 20
-194.1909314916
 10
376.7886460729
 20
-193.1117348898
 10
377.7985366171
 20
-192.1690172635
 10
378.8435756713
 20
-191.3838373666
 10
379.90041879
 20
-190.7737348206
 10
380.9454578442
 20
-190.3523383081
 10
381.9553483884
 20
-190.1290611311
 10
382.9075311366
 20
-190.1088909325
 10
383.7807358996
 20
-190.2922782813
 10
384.5554567259
 20
-190.6751266073
 10
385.2143876326
 20
-191.2488837113
 10
385.7428091919
 20
-192.0007328079
 10
386.1289173395
 20
-192.9138788306
 10
386.3640870573
 20
-193.9679236062
 10
386.4430650425
 20
-195.1393215161
  0
LWPOLYLINE
  5
146
330
1F
100
AcDbEntity
  8
0
  6
Continuous
 62
     7
370
    25
100
AcDbPolyline
 90
       43
 70
   128
 43
0.0
 10
450.0826753493
 20
-84.9122834144
 10
450.0036973641
 20
-86.174867365
 10
449.7685276463
 20
-87.5004333173
 10
449.3824194987
 20
-88.8593703183
 10
448.8539979394
 20
-90.2213219609
 10
448.1950670327
 20
-91.555864496
 10
447.4203462064
 20
-92.8331864486
 10
446.5471414433
 20
-94.0247545571
 10
445.5949586952
 20
-95.1039511589
 10
444.585068151
 20
-96.0466687853
 10
443.5400290967
 20
-96.8318486822
 10
442.4831859781
 20
-97.4419512282
 10
441.4381469238
 20
-97.8633477406
 10
440.4282563797
 20
-98.0866249177
 10
439.4760736315
 20
-98.1067951163
 10
438.6028688685
 20
-97.9234077674
 10
437.8281480421
 20
-97.5405594415
 10
437.1692171354
 20
-96.9668023374
 10
436.6407955761
 20
-96.2149532408
 10
436.2546874285
 20
-95.3018072181
 10
436.0195177107
 20
-94.2477624425
 10
435.9405397255
 20
-93.0763645326
 10
436.0195177107
 20
-91.813780582
 10
436.2546874285
 20
-90.4882146297
 10
436.6407955761
 20
-89.1292776287
 10
437.1692171354
 20
-87.7673259861
 10
437.8281480421
 20
-86.432783451
 10
438.6028688685
 20
-85.1554614984
 10
439.4760736315
 20
-83.9638933899
 10
440.4282563797
 20
-82.8846967881
 10
441.4381469238
 20
-81.9419791617
 10
442.4831859781
 20
-81.1567992648
 10
443.5400290967
 20
-80.5466967188
 10
444.585068151
 20
-80.1253002064
 10
445.5949586952
 20
-79.9020230293
 10
446.5471414433
 20
-79.8818528307
 10
447.4203462064
 20
-80.0652401796
 10
448.1950670327
 20
-80.4480885055
 10
448.8539979394
 20
-81.0218456096
 10
449.3824194987
 20
-81.7736947062
 10
449.7685276463
 20
-82.6868407289
 10
450.0036973641
 20
-83.7408855045
 10
450.0826753493
 20
-84.9122834144
  0
LWPOLYLINE
  5
147
330
1F
100
AcDbEntity
  8
0
  6
Continuous
 62
     7
370
    25
100
AcDbPolyline
 90
       43
 70
   128
 43
0.0
 10
341.4430650425
 20
-199.5929345583
 10
341.3640870573
 20
-200.8555185089
 10
341.1289173395
 20
-202.1810844612
 10
340.7428091919
 20
-203.5400214621
 10
340.2143876326
 20
-204.9019731047
 10
339.5554567259
 20
-206.2365156398
 10
338.7807358996
 20
-207.5138375925
 10
337.9075311366
 20
-208.705405701
 10
336.9553483884
 20
-209.7846023028
 10
335.9454578442
 20
-210.7273199291
 10
334.90041879
 20
-211.512499826
 10
333.8435756713
 20
-212.122602372
 10
332.7985366171
 20
-212.5439988845
 10
331.7886460729
 20
-212.7672760615
 10
330.8364633247
 20
-212.7874462601
 10
329.9632585617
 20
-212.6040589113
 10
329.1885377353
 20
-212.2212105853
 10
328.5296068286
 20
-211.6474534813
 10
328.0011852693
 20
-210.8956043847
 10
327.6150771217
 20
-209.982458362
 10
327.3799074039
 20
-208.9284135864
 10
327.3009294188
 20
-207.7570156765
 10
327.3799074039
 20
-206.4944317258
 10
327.6150771217
 20
-205.1688657736
 10
328.0011852693
 20
-203.8099287726
 10
328.5296068286
 20
-202.44797713
 10
329.1885377353
 20
-201.1134345949
 10
329.9632585617
 20
-199.8361126422
 10
330.8364633247
 20
-198.6445445337
 10
331.7886460729
 20
-197.5653479319
 10
332.7985366171
 20
-196.6226303056
 10
333.8435756713
 20
-195.8374504087
 10
334.90041879
 20
-195.2273478627
 10
335.9454578442
 20
-194.8059513503
 10
336.9553483884
 20
-194.5826741732
 10
337.9075311366
 20
-194.5625039746
 10
338.7807358996
 20
-194.7458913235
 10
339.5554567259
 20
-195.1287396494
 10
340.2143876326
 20
-195.7024967535
 10
340.7428091919
 20
-196.4543458501
 10
341.1289173395
 20
-197.3674918728
 10
341.3640870573
 20
-198.4215366483
 10
341.4430650425
 20
-199.5929345583
  0
LWPOLYLINE
  5
148
330
1F
100
AcDbEntity
  8
0
  6
Continuous
 62
     7
370
    25
100
AcDbPolyline
 90
       43
 70
   128
 43
0.0
 10
341.4430650425
 20
-95.6642564223
 10
341.3640870573
 20
-96.9268403729
 10
341.1289173395
 20
-98.2524063252
 10
340.7428091919
 20
-99.6113433261
 10
340.2143876326
 20
-100.9732949687
 10
339.5554567259
 20
-102.3078375038
 10
338.7807358996
 20
-103.5851594565
 10
337.9075311366
 20
-104.776727565
 10
336.9553483884
 20
-105.8559241668
 10
335.9454578442
 20
-106.7986417931
 10
334.90041879
 20
-107.58382169
 10
333.8435756713
 20
-108.193924236
 10
332.7985366171
 20
-108.6153207485
 10
331.7886460729
 20
-108.8385979255
 10
330.8364633247
 20
-108.8587681241
 10
329.9632585617
 20
-108.6753807753
 10
329.1885377353
 20
-108.2925324493
 10
328.5296068286
 20
-107.7187753453
 10
328.0011852693
 20
-106.9669262487
 10
327.6150771217
 20
-106.053780226
 10
327.3799074039
 20
-104.9997354504
 10
327.3009294188
 20
-103.8283375405
 10
327.3799074039
 20
-102.5657535898
 10
327.6150771217
 20
-101.2401876376
 10
328.0011852693
 20
-99.8812506366
 10
328.5296068286
 20
-98.519298994
 10
329.1885377353
 20
-97.1847564589
 10
329.9632585617
 20
-95.9074345062
 10
330.8364633247
 20
-94.7158663977
 10
331.7886460729
 20
-93.6366697959
 10
332.7985366171
 20
-92.6939521696
 10
333.8435756713
 20
-91.9087722727
 10
334.90041879
 20
-91.2986697267
 10
335.9454578442
 20
-90.8772732143
 10
336.9553483884
 20
-90.6539960372
 10
337.9075311366
 20
-90.6338258386
 10
338.7807358996
 20
-90.8172131875
 10
339.5554567259
 20
-91.2000615134
 10
340.2143876326
 20
-91.7738186175
 10
340.7428091919
 20
-92.5256677141
 10
341.1289173395
 20
-93.4388137368
 10
341.3640870573
 20
-94.4928585123
 10
341.4430650425
 20
-95.6642564223
  0
LINE
  5
149
330
1F
100
AcDbEntity
  8
0
  6
Continuous
 62
     7
370
    25
100
AcDbLine
 10
429.5787383087
 20
-144.3328453242
 30
0.0
 11
429.4720050425
 21
-144.2740852211
 31
0.0
  0
ARC
  5
14A
330
1F
100
AcDbEntity
  8
0
  6
Continuous
 62
     7
370
    25
100
AcDbCircle
 10
402.4080489289
 20
-87.4610012653
 30
0.0
 40
22.83465831129332
100
AcDbArc
 50
45.9495095953
 51
74.4123908059
  0
ARC
  5
14B
330
1F
100
AcDbEntity
  8
0
  6
Continuous
 62
     7
370
    25
100
AcDbCircle
 10
357.7575187536
 20
-164.8126990025
 30
0.0
 40
22.84522732970382
100
AcDbArc
 50
226.8882054722
 51
255.5060654186
  0
LINE
  5
14C
330
1F
100
AcDbEntity
  8
0
  6
Continuous
 62
     7
370
    25
100
AcDbLine
 10
448.2183486155
 20
-81.608088268
 30
0.0
 11
448.1116153492
 21
-81.549328165
 31
0.0
  0
LINE
  5
14D
330
1F
100
AcDbEntity
  8
0
  6
Continuous
 62
     7
370
    25
100
AcDbLine
 10
384.5787383087
 20
-191.8351263697
 30
0.0
 11
384.4720050425
 21
-191.7763662667
 31
0.0
  0
LINE
  5
14E
330
1F
100
AcDbEntity
  8
0
  6
Continuous
 62
     7
370
    25
100
AcDbLine
 10
429.5787383087
 20
-40.4041671882
 30
0.0
 11
429.4720050425
 21
-40.3454070851
 31
0.0
  0
LINE
  5
14F
330
1F
100
AcDbEntity
  8
0
  6
Continuous
 62
     7
370
    25
100
AcDbLine
 10
339.5787383087
 20
-196.2887394119
 30
0.0
 11
339.4720050425
 21
-196.2299793088
 31
0.0
  0
LINE
  5
150
330
1F
100
AcDbEntity
  8
0
  6
Continuous
 62
     7
370
    25
100
AcDbLine
 10
384.5787383087
 20
-44.8577802303
 30
0.0
 11
384.4720050425
 21
-44.7990201273
 31
0.0
  0
LINE
  5
151
330
1F
100
AcDbEntity
  8
0
  6
Continuous
 62
     7
370
    25
100
AcDbLine
 10
320.9391280019
 20
-155.084818332
 30
0.0
 11
320.8323947357
 21
-155.026058229
 31
0.0
  0
LINE
  5
152
330
1F
100
AcDbEntity
  8
0
  6
Continuous
 62
     7
370
    25
100
AcDbLine
 10
339.5787383087
 20
-92.3600612759
 30
0.0
 11
339.4720050425
 21
-92.3013011728
 31
0.0
  0
LWPOLYLINE
  5
153
330
1F
100
AcDbEntity
  8
0
  6
Continuous
 62
     1
370
    25
100
AcDbPolyline
 90
       51
 70
   128
 43
0.0
 10
459.2750635047
 20
-80.4220387994
 10
459.1975485998
 20
-84.5120404804
 10
458.9651556243
 20
-88.6835325952
 10
458.5783394982
 20
-92.9283492522
 10
458.0378574323
 20
-97.2381810233
 10
457.3447674456
 20
-101.6045912105
 10
456.5004262944
 20
-106.0190323608
 10
455.5064868161
 20
-110.4728629983
 10
454.3648946938
 20
-114.9573645405
 10
453.0778846479
 20
-119.4637583649
 10
451.6479760608
 20
-123.9832229941
 10
450.0779680457
 20
-128.5069113637
 10
448.3709339672
 20
-133.0259681414
 10
446.5302154246
 20
-137.5315470613
 10
444.5594157108
 20
-142.0148282411
 10
442.4623927589
 20
-146.4670354474
 10
440.2432515897
 20
-150.8794532754
 10
437.9063362764
 20
-155.2434442101
 10
435.4562214403
 20
-159.5504655342
 10
432.8977032963
 20
-163.7920860513
 10
430.2357902639
 20
-167.96000259
 10
427.4756931628
 20
-172.046056258
 10
424.6228150126
 20
-176.0422484133
 10
421.6827404564
 20
-179.9407563222
 10
418.6612248282
 20
-183.7339484723
 10
415.5641828866
 20
-187.4143995118
 10
412.3976772368
 20
-190.9749047851
 10
409.1679064621
 20
-194.4084944358
 10
405.8811929907
 20
-197.7084470509
 10
402.5439707185
 20
-200.8683028183
 10
399.1627724147
 20
-203.8818761719
 10
395.7442169338
 20
-206.7432679004
 10
392.2949962588
 20
-209.446876695
 10
388.821862401
 20
-211.9874101146
 10
385.3316141831
 20
-214.3598949457
 10
381.8310839299
 20
-216.5596869378
 10
378.3271240937
 20
-218.5824798949
 10
374.8265938405
 20
-220.4243141046
 10
371.3363456226
 20
-222.0815840902
 10
367.8632117649
 20
-223.5510456676
 10
364.4139910898
 20
-224.829822297
 10
360.995435609
 20
-225.9154107129
 10
357.6142373052
 20
-226.8056858251
 10
354.2770150329
 20
-227.4989048782
 10
350.9903015615
 20
-227.9937108635
 10
347.7605307869
 20
-228.2891351749
 10
344.594025137
 20
-228.3845995054
 10
341.4969831955
 20
-228.2799169792
 10
338.4754675672
 20
-227.9752925173
 10
335.535393011
 20
-227.4713224362
 10
333.4601738832
 20
-226.9823983558
  0
LWPOLYLINE
  5
154
330
1F
100
AcDbEntity
  8
0
  6
Continuous
 62
     1
370
    25
100
AcDbPolyline
 90
       16
 70
   128
 43
0.0
 10
444.0678804597
 20
-35.3162372394
 10
444.5594157108
 20
-35.8195746511
 10
446.5302154246
 20
-38.0274189154
 10
448.3709339672
 20
-40.4077494432
 10
450.0779680457
 20
-42.9559066256
 10
451.6479760608
 20
-45.6669023254
 10
453.0778846479
 20
-48.5354296411
 10
454.3648946938
 20
-51.5558732958
 10
455.5064868161
 20
-54.7223206292
 10
456.5004262944
 20
-58.0285731719
 10
457.3447674456
 20
-61.4681587794
 10
458.0378574323
 20
-65.0343443013
 10
458.5783394982
 20
-68.7201487619
 10
458.9651556243
 20
-72.518357026
 10
459.1975485998
 20
-76.4215339225
 10
459.2750635047
 20
-80.4220387994
  0
LWPOLYLINE
  5
155
330
1F
100
AcDbEntity
  8
0
  6
Continuous
 62
     1
370
    25
100
AcDbPolyline
 90
       16
 70
   128
 43
0.0
 10
472.0029855661
 20
-87.7697118058
 10
471.9254706612
 20
-83.7692069289
 10
471.6930776856
 20
-79.8660300324
 10
471.3062615595
 20
-76.0678217683
 10
470.7657794937
 20
-72.3820173077
 10
470.072689507
 20
-68.8158317858
 10
469.2283483558
 20
-65.3762461783
 10
468.2344088774
 20
-62.0699936356
 10
467.0928167552
 20
-58.9035463022
 10
465.8058067092
 20
-55.8831026475
 10
464.3758981221
 20
-53.0145753318
 10
462.8058901071
 20
-50.3035796321
 10
461.0988560286
 20
-47.7554224496
 10
459.258137486
 20
-45.3750919218
 10
457.2873377722
 20
-43.1672476575
 10
456.9069994709
 20
-42.7762425088
  0
LWPOLYLINE
  5
156
330
1F
100
AcDbEntity
  8
0
  6
Continuous
 62
     1
370
    25
100
AcDbPolyline
 90
       51
 70
   128
 43
0.0
 10
345.6968118302
 20
-234.1972234647
 10
348.2633150724
 20
-234.8189954426
 10
351.2033896286
 20
-235.3229655237
 10
354.2249052568
 20
-235.6275899856
 10
357.3219471984
 20
-235.7322725118
 10
360.4884528482
 20
-235.6368081813
 10
363.7182236228
 20
-235.3413838699
 10
367.0049370943
 20
-234.8465778846
 10
370.3421593665
 20
-234.1533588315
 10
373.7233576703
 20
-233.2630837193
 10
377.1419131512
 20
-232.1774953034
 10
380.5911338262
 20
-230.898718674
 10
384.064267684
 20
-229.4292570966
 10
387.5545159019
 20
-227.771987111
 10
391.0550461551
 20
-225.9301529013
 10
394.5590059913
 20
-223.9073599442
 10
398.0595362445
 20
-221.7075679521
 10
401.5497844623
 20
-219.335083121
 10
405.0229183201
 20
-216.7945497014
 10
408.4721389952
 20
-214.0909409068
 10
411.890694476
 20
-211.2295491783
 10
415.2718927798
 20
-208.2159758247
 10
418.6091150521
 20
-205.0561200573
 10
421.8958285235
 20
-201.7561674422
 10
425.1255992981
 20
-198.3225777915
 10
428.292104948
 20
-194.7620725182
 10
431.3891468895
 20
-191.0816214787
 10
434.4106625178
 20
-187.2884293286
 10
437.350737074
 20
-183.3899214197
 10
440.2036152241
 20
-179.3937292644
 10
442.9637123252
 20
-175.3076755964
 10
445.6256253577
 20
-171.1397590577
 10
448.1841435017
 20
-166.8981385406
 10
450.6342583377
 20
-162.5911172165
 10
452.9711736511
 20
-158.2271262818
 10
455.1903148203
 20
-153.8147084538
 10
457.2873377722
 20
-149.3625012475
 10
459.258137486
 20
-144.8792200677
 10
461.0988560286
 20
-140.3736411478
 10
462.8058901071
 20
-135.8545843701
 10
464.3758981221
 20
-131.3308960005
 10
465.8058067092
 20
-126.8114313713
 10
467.0928167552
 20
-122.3050375469
 10
468.2344088774
 20
-117.8205360047
 10
469.2283483558
 20
-113.3667053672
 10
470.072689507
 20
-108.9522642169
 10
470.7657794937
 20
-104.5858540297
 10
471.3062615595
 20
-100.2760222586
 10
471.6930776856
 20
-96.0312056016
 10
471.9254706612
 20
-91.8597134868
 10
472.0029855661
 20
-87.7697118058
  0
LWPOLYLINE
  5
157
330
1F
100
AcDbEntity
  8
0
  6
Continuous
 62
     1
370
    25
100
AcDbPolyline
 90
       21
 70
   128
 43
0.0
 10
429.4720050425
 20
-144.2740852211
 10
428.8197464518
 20
-144.0224996289
 10
427.9682818604
 20
-143.9115094996
 10
427.0456761218
 20
-144.0028190319
 10
426.0746468512
 20
-144.2941798819
 10
425.0791040118
 20
-144.7784177786
 10
424.0835611724
 20
-145.4436091779
 10
423.1125319018
 20
-146.2733748599
 10
422.1899261632
 20
-147.2472832397
 10
421.3384615718
 20
-148.3413534608
 10
420.5791040118
 20
-149.5286458832
 10
419.9305513864
 20
-150.7799254271
 10
419.4087732138
 20
-152.0643814375
 10
419.0266174041
 20
-153.3503863445
 10
418.7934939018
 20
-154.6062744392
 10
418.7151429811
 20
-155.8011215888
 10
418.7934939018
 20
-156.9055066909
 10
419.0266174041
 20
-157.892236119
 10
419.4087732138
 20
-158.7370133199
 10
419.9305513864
 20
-159.4190370753
 10
420.5536654081
 20
-159.906656522
  0
LWPOLYLINE
  5
158
330
1F
100
AcDbEntity
  8
0
  6
Continuous
 62
     1
370
    25
100
AcDbPolyline
 90
       52
 70
   128
 43
0.0
 10
408.5439846825
 20
-65.4661856803
 10
407.0198138786
 20
-65.0912265274
 10
404.7266039284
 20
-64.7132287877
 10
402.3529989566
 20
-64.5355953209
 10
399.9067411691
 20
-64.5589055306
 10
397.3958097504
 20
-64.7830833836
 10
394.828394837
 20
-65.2073976585
 10
392.2128708025
 20
-65.8304643302
 10
389.5577689428
 20
-66.6502510847
 10
386.8717496483
 20
-67.6640839481
 10
384.1635741555
 20
-68.8686560083
 10
381.4420759701
 20
-70.2600382016
 10
378.7161320535
 20
-71.8336921285
 10
375.9946338681
 20
-73.584484857
 10
373.2864583754
 20
-75.5067056651
 10
370.6004390808
 20
-77.594084668
 10
367.9453372211
 20
-79.8398132693
 10
365.3298131867
 20
-82.2365663691
 10
362.7623982732
 20
-84.776526257
 10
360.2514668545
 20
-87.4514081117
 10
357.8052090671
 20
-90.2524870247
 10
355.4316040952
 20
-93.1706264586
 10
353.1383941451
 20
-96.1963080493
 10
350.9330591908
 20
-99.3196626522
 10
348.8227925767
 20
-102.5305025338
 10
346.8144775538
 20
-105.8183546019
 10
344.9146648282
 20
-109.1724945663
 10
343.1295511943
 20
-112.5819819198
 10
341.4649593216
 20
-116.0356956231
 10
339.9263187629
 20
-119.52237038
 10
338.5186482438
 20
-123.0306333823
 10
337.2465392929
 20
-126.5490414052
 10
336.1141412654
 20
-130.066118133
 10
335.1251478081
 20
-133.5703915925
 10
334.2827848121
 20
-137.050431572
 10
333.5897998905
 20
-140.4948869045
 10
333.0484534161
 20
-143.8925224926
 10
332.6605111484
 20
-147.2322559552
 10
332.4272384747
 20
-150.5031937759
 10
332.3493962817
 20
-153.6946668354
 10
332.4272384747
 20
-156.796265212
 10
332.6605111484
 20
-159.7978721365
 10
333.0484534161
 20
-162.6896969909
 10
333.5897998905
 20
-165.4623072436
 10
334.2827848121
 20
-168.1066592163
 10
335.1251478081
 20
-170.6141275824
 10
336.1141412654
 20
-172.9765335015
 10
337.2465392929
 20
-175.1861712963
 10
338.5186482438
 20
-177.2358335877
 10
339.9263187629
 20
-179.1188348033
 10
341.4649593216
 20
-180.8290329845
 10
342.1445406136
 20
-181.4902085691
  0
LWPOLYLINE
  5
159
330
1F
100
AcDbEntity
  8
0
  6
Continuous
 62
     1
370
    25
100
AcDbPolyline
 90
       50
 70
   128
 43
0.0
 10
353.3508740165
 20
-187.2804203023
 10
352.6542408242
 20
-186.4665078097
 10
351.2465703051
 20
-184.5835065941
 10
349.9744613543
 20
-182.5338443027
 10
348.8420633267
 20
-180.3242065079
 10
347.8530698694
 20
-177.9618005889
 10
347.0107068735
 20
-175.4543322227
 10
346.3177219519
 20
-172.80998025
 10
345.7763754774
 20
-170.0373699973
 10
345.3884332098
 20
-167.1455451429
 10
345.155160536
 20
-164.1439382185
 10
345.0773183431
 20
-161.0423398418
 10
345.155160536
 20
-157.8508667823
 10
345.3884332098
 20
-154.5799289616
 10
345.7763754774
 20
-151.240195499
 10
346.3177219519
 20
-147.8425599109
 10
347.0107068735
 20
-144.3981045785
 10
347.8530698694
 20
-140.9180645989
 10
348.8420633267
 20
-137.4137911394
 10
349.9744613543
 20
-133.8967144116
 10
351.2465703051
 20
-130.3783063887
 10
352.6542408242
 20
-126.8700433864
 10
354.192881383
 20
-123.3833686295
 10
355.8574732557
 20
-119.9296549262
 10
357.6425868896
 20
-116.5201675727
 10
359.5423996151
 20
-113.1660276083
 10
361.550714638
 20
-109.8781755402
 10
363.6609812522
 20
-106.6673356586
 10
365.8663162064
 20
-103.5439810557
 10
368.1595261566
 20
-100.518299465
 10
370.5331311284
 20
-97.6001600311
 10
372.9793889159
 20
-94.7990811181
 10
375.4903203346
 20
-92.1241992634
 10
378.057735248
 20
-89.5842393755
 10
380.6732592825
 20
-87.1874862757
 10
383.3283611422
 20
-84.9417576744
 10
386.0143804367
 20
-82.8543786715
 10
388.7225559295
 20
-80.9321578634
 10
391.4440541149
 20
-79.1813651349
 10
394.1699980315
 20
-77.607711208
 10
396.8914962169
 20
-76.2163290147
 10
399.5996717096
 20
-75.0117569545
 10
402.2856910042
 20
-73.9979240911
 10
404.9407928639
 20
-73.1781373366
 10
407.5563168983
 20
-72.5550706649
 10
410.1237318118
 20
-72.13075639
 10
412.6346632304
 20
-71.906578537
 10
415.0809210179
 20
-71.8832683273
 10
417.4545259898
 20
-72.0609017941
 10
419.5746356887
 20
-72.402789537
  0
LWPOLYLINE
  5
15A
330
1F
100
AcDbEntity
  8
0
  6
Continuous
 62
     1
370
    25
100
AcDbPolyline
 90
       21
 70
   128
 43
0.0
 10
448.1116153492
 20
-81.549328165
 10
447.4593567586
 20
-81.2977425727
 10
446.6078921672
 20
-81.1867524435
 10
445.6852864286
 20
-81.2780619757
 10
444.714257158
 20
-81.5694228257
 10
443.7187143186
 20
-82.0536607224
 10
442.7231714792
 20
-82.7188521218
 10
441.7521422086
 20
-83.5486178038
 10
440.82953647
 20
-84.5225261836
 10
439.9780718786
 20
-85.6165964046
 10
439.2187143186
 20
-86.803888827
 10
438.5701616932
 20
-88.055168371
 10
438.0483835206
 20
-89.3396243814
 10
437.6662277109
 20
-90.6256292883
 10
437.4331042086
 20
-91.8815173831
 10
437.3547532879
 20
-93.0763645326
 10
437.4331042086
 20
-94.1807496347
 10
437.6662277109
 20
-95.1674790628
 10
438.0483835206
 20
-96.0122562638
 10
438.5701616932
 20
-96.6942800191
 10
439.1932757149
 20
-97.1818994658
  0
LWPOLYLINE
  5
15B
330
1F
100
AcDbEntity
  8
0
  6
Continuous
 62
     1
370
    25
100
AcDbPolyline
 90
       21
 70
   128
 43
0.0
 10
384.4720050425
 20
-191.7763662667
 10
383.8197464518
 20
-191.5247806745
 10
382.9682818604
 20
-191.4137905452
 10
382.0456761218
 20
-191.5051000774
 10
381.0746468512
 20
-191.7964609274
 10
380.0791040118
 20
-192.2806988242
 10
379.0835611724
 20
-192.9458902235
 10
378.1125319018
 20
-193.7756559055
 10
377.1899261632
 20
-194.7495642853
 10
376.3384615718
 20
-195.8436345063
 10
375.5791040118
 20
-197.0309269287
 10
374.9305513864
 20
-198.2822064727
 10
374.4087732138
 20
-199.5666624831
 10
374.0266174041
 20
-200.8526673901
 10
373.7934939018
 20
-202.1085554848
 10
373.7151429811
 20
-203.3034026344
 10
373.7934939018
 20
-204.4077877364
 10
374.0266174041
 20
-205.3945171646
 10
374.4087732138
 20
-206.2392943655
 10
374.9305513864
 20
-206.9213181209
 10
375.5536654081
 20
-207.4089375676
  0
LWPOLYLINE
  5
15C
330
1F
100
AcDbEntity
  8
0
  6
Continuous
 62
     1
370
    25
100
AcDbPolyline
 90
       21
 70
   128
 43
0.0
 10
429.4720050425
 20
-40.3454070851
 10
428.8197464518
 20
-40.0938214929
 10
427.9682818605
 20
-39.9828313636
 10
427.0456761218
 20
-40.0741408959
 10
426.0746468512
 20
-40.3655017459
 10
425.0791040118
 20
-40.8497396426
 10
424.0835611724
 20
-41.5149310419
 10
423.1125319018
 20
-42.3446967239
 10
422.1899261632
 20
-43.3186051037
 10
421.3384615718
 20
-44.4126753248
 10
420.5791040118
 20
-45.5999677472
 10
419.9305513865
 20
-46.8512472911
 10
419.4087732138
 20
-48.1357033015
 10
419.0266174041
 20
-49.4217082085
 10
418.7934939018
 20
-50.6775963032
 10
418.7151429811
 20
-51.8724434528
 10
418.7934939018
 20
-52.9768285549
 10
419.0266174041
 20
-53.963557983
 10
419.4087732138
 20
-54.8083351839
 10
419.9305513865
 20
-55.4903589393
 10
420.5536654081
 20
-55.977978386
  0
LWPOLYLINE
  5
15D
330
1F
100
AcDbEntity
  8
0
  6
Continuous
 62
     1
370
    25
100
AcDbPolyline
 90
       21
 70
   128
 43
0.0
 10
339.4720050425
 20
-196.2299793088
 10
338.8197464518
 20
-195.9783937166
 10
337.9682818604
 20
-195.8674035873
 10
337.0456761218
 20
-195.9587131195
 10
336.0746468512
 20
-196.2500739696
 10
335.0791040118
 20
-196.7343118663
 10
334.0835611724
 20
-197.3995032656
 10
333.1125319018
 20
-198.2292689476
 10
332.1899261632
 20
-199.2031773274
 10
331.3384615718
 20
-200.2972475484
 10
330.5791040118
 20
-201.4845399709
 10
329.9305513864
 20
-202.7358195148
 10
329.4087732138
 20
-204.0202755252
 10
329.0266174041
 20
-205.3062804322
 10
328.7934939018
 20
-206.5621685269
 10
328.7151429811
 20
-207.7570156765
 10
328.7934939018
 20
-208.8614007786
 10
329.0266174041
 20
-209.8481302067
 10
329.4087732138
 20
-210.6929074076
 10
329.9305513864
 20
-211.374931163
 10
330.5536654081
 20
-211.8625506097
  0
LWPOLYLINE
  5
15E
330
1F
100
AcDbEntity
  8
0
  6
Continuous
 62
     1
370
    25
100
AcDbPolyline
 90
       21
 70
   128
 43
0.0
 10
384.4720050425
 20
-44.7990201273
 10
383.8197464518
 20
-44.547434535
 10
382.9682818605
 20
-44.4364444058
 10
382.0456761218
 20
-44.527753938
 10
381.0746468512
 20
-44.819114788
 10
380.0791040118
 20
-45.3033526847
 10
379.0835611724
 20
-45.9685440841
 10
378.1125319018
 20
-46.7983097661
 10
377.1899261632
 20
-47.7722181459
 10
376.3384615718
 20
-48.8662883669
 10
375.5791040118
 20
-50.0535807893
 10
374.9305513865
 20
-51.3048603333
 10
374.4087732138
 20
-52.5893163437
 10
374.0266174041
 20
-53.8753212506
 10
373.7934939018
 20
-55.1312093454
 10
373.7151429811
 20
-56.3260564949
 10
373.7934939018
 20
-57.430441597
 10
374.0266174041
 20
-58.4171710251
 10
374.4087732138
 20
-59.2619482261
 10
374.9305513865
 20
-59.9439719814
 10
375.5536654081
 20
-60.4315914281
  0
LWPOLYLINE
  5
15F
330
1F
100
AcDbEntity
  8
0
  6
Continuous
 62
     1
370
    25
100
AcDbPolyline
 90
       21
 70
   128
 43
0.0
 10
320.8323947357
 20
-155.026058229
 10
320.180136145
 20
-154.7744726368
 10
319.3286715537
 20
-154.6634825075
 10
318.406065815
 20
-154.7547920397
 10
317.4350365444
 20
-155.0461528897
 10
316.439493705
 20
-155.5303907865
 10
315.4439508656
 20
-156.1955821858
 10
314.472921595
 20
-157.0253478678
 10
313.5503158564
 20
-157.9992562476
 10
312.698851265
 20
-159.0933264686
 10
311.939493705
 20
-160.280618891
 10
311.2909410797
 20
-161.531898435
 10
310.769162907
 20
-162.8163544454
 10
310.3870070973
 20
-164.1023593524
 10
310.153883595
 20
-165.3582474471
 10
310.0755326743
 20
-166.5530945967
 10
310.153883595
 20
-167.6574796987
 10
310.3870070973
 20
-168.6442091269
 10
310.769162907
 20
-169.4889863278
 10
311.2909410797
 20
-170.1710100832
 10
311.9140551014
 20
-170.6586295299
  0
LWPOLYLINE
  5
160
330
1F
100
AcDbEntity
  8
0
  6
Continuous
 62
     1
370
    25
100
AcDbPolyline
 90
       21
 70
   128
 43
0.0
 10
339.4720050425
 20
-92.3013011728
 10
338.8197464518
 20
-92.0497155806
 10
337.9682818605
 20
-91.9387254513
 10
337.0456761218
 20
-92.0300349835
 10
336.0746468512
 20
-92.3213958336
 10
335.0791040118
 20
-92.8056337303
 10
334.0835611724
 20
-93.4708251296
 10
333.1125319018
 20
-94.3005908116
 10
332.1899261632
 20
-95.2744991914
 10
331.3384615718
 20
-96.3685694124
 10
330.5791040118
 20
-97.5558618349
 10
329.9305513865
 20
-98.8071413788
 10
329.4087732138
 20
-100.0915973892
 10
329.0266174041
 20
-101.3776022962
 10
328.7934939018
 20
-102.6334903909
 10
328.7151429811
 20
-103.8283375405
 10
328.7934939018
 20
-104.9327226426
 10
329.0266174041
 20
-105.9194520707
 10
329.4087732138
 20
-106.7642292716
 10
329.9305513865
 20
-107.446253027
 10
330.5536654081
 20
-107.9338724737
  0
ENDSEC
  0
SECTION
  2
OBJECTS
  0
DICTIONARY
  5
C
330
0
100
AcDbDictionary
281
     1
  3
ACAD_GROUP
350
D
  3
ACAD_LAYOUT
350
1A
  3
ACAD_MLINESTYLE
350
17
  3
ACAD_PLOTSETTINGS
350
19
  3
ACAD_PLOTSTYLENAME
350
E
  3
ACAD_SCALELIST
350
47
  3
DWGPROPS
350
161
  0
DICTIONARY
  5
D
102
{ACAD_REACTORS
330
C
102
}
330
C
100
AcDbDictionary
281
     1
  0
DICTIONARY
  5
1A
102
{ACAD_REACTORS
330
C
102
}
330
C
100
AcDbDictionary
281
     1
  3
Layout1
350
1E
  3
Layout2
350
26
  3
Model
350
22
  0
DICTIONARY
  5
17
102
{ACAD_REACTORS
330
C
102
}
330
C
100
AcDbDictionary
281
     1
  3
Standard
350
18
  0
DICTIONARY
  5
19
102
{ACAD_REACTORS
330
C
102
}
330
C
100
AcDbDictionary
281
     1
  0
ACDBDICTIONARYWDFLT
  5
E
102
{ACAD_REACTORS
330
C
102
}
330
C
100
AcDbDictionary
281
     1
  3
Normal
350
F
100
AcDbDictionaryWithDefault
340
F
  0
DICTIONARY
  5
47
102
{ACAD_REACTORS
330
C
102
}
330
C
100
AcDbDictionary
281
     1
  3
A0
350
48
  3
A1
350
49
  3
A2
350
4A
  3
A3
350
4B
  3
A4
350
4C
  3
A5
350
4D
  3
A6
350
4E
  3
A7
350
4F
  3
A8
350
50
  3
A9
350
51
  3
B0
350
52
  3
B1
350
53
  3
B2
350
54
  3
B3
350
55
  3
B4
350
56
  3
B5
350
57
  3
B6
350
58
  3
B7
350
59
  3
B8
350
5A
  3
B9
350
5B
  3
C0
350
5C
  3
C1
350
5D
  3
C2
350
5E
  3
C3
350
5F
  3
C4
350
60
  3
C5
350
61
  3
C6
350
62
  3
C7
350
63
  3
C8
350
64
  3
C9
350
65
  3
D0
350
66
  3
D1
350
67
  3
D2
350
68
  0
XRECORD
  5
161
102
{ACAD_REACTORS
330
C
102
}
330
C
100
AcDbXrecord
280
     1
  1
DWGPROPS COOKIE
  2

  3

  4

  6

  7

  8
b.kav
  9

300
=
301
=
302
=
303
=
304
=
305
=
306
=
307
=
308
=
309
=
 40
0.0
 41
2459741.467469757
 42
2459741.467471713
  1

 90
        0
  0
LAYOUT
  5
1E
102
{ACAD_REACTORS
330
1A
102
}
330
1A
100
AcDbPlotSettings
  1

  2
none_device
  4

  6

 40
0.0
 41
0.0
 42
0.0
 43
0.0
 44
0.0
 45
0.0
 46
0.0
 47
0.0
 48
0.0
 49
0.0
140
0.0
141
0.0
142
1.0
143
1.0
 70
   688
 72
     1
 73
     0
 74
     5
  7

 75
    16
147
1.0
148
0.0
149
0.0
100
AcDbLayout
  1
Layout1
 70
     1
 71
     1
 10
0.0
 20
0.0
 11
420.0
 21
297.0
 12
0.0
 22
0.0
 32
0.0
 14
1.0000000000E+20
 24
1.0000000000E+20
 34
1.0000000000E+20
 15
-1.0000000000E+20
 25
-1.0000000000E+20
 35
-1.0000000000E+20
146
0.0
 13
0.0
 23
0.0
 33
0.0
 16
1.0
 26
0.0
 36
0.0
 17
0.0
 27
1.0
 37
0.0
 76
     0
330
1B
  0
LAYOUT
  5
26
102
{ACAD_REACTORS
330
1A
102
}
330
1A
100
AcDbPlotSettings
  1

  2
none_device
  4

  6

 40
0.0
 41
0.0
 42
0.0
 43
0.0
 44
0.0
 45
0.0
 46
0.0
 47
0.0
 48
0.0
 49
0.0
140
0.0
141
0.0
142
1.0
143
1.0
 70
   688
 72
     1
 73
     0
 74
     5
  7

 75
    16
147
1.0
148
0.0
149
0.0
100
AcDbLayout
  1
Layout2
 70
     1
 71
     2
 10
0.0
 20
0.0
 11
0.0
 21
0.0
 12
0.0
 22
0.0
 32
0.0
 14
0.0
 24
0.0
 34
0.0
 15
0.0
 25
0.0
 35
0.0
146
0.0
 13
0.0
 23
0.0
 33
0.0
 16
1.0
 26
0.0
 36
0.0
 17
0.0
 27
1.0
 37
0.0
 76
     0
330
23
  0
LAYOUT
  5
22
102
{ACAD_REACTORS
330
1A
102
}
330
1A
100
AcDbPlotSettings
  1

  2
none_device
  4
Letter_(8.50_x_11.00_Inches)
  6

 40
6.35
 41
6.35
 42
6.35000508
 43
6.35000508
 44
215.9
 45
279.4
 46
0.0
 47
0.0
 48
0.0
 49
0.0
140
0.0
141
0.0
142
1.0
143
1.0
 70
  1712
 72
     1
 73
     0
 74
     0
  7

 75
     0
147
1.0
148
0.0
149
0.0
100
AcDbLayout
  1
Model
 70
     1
 71
     0
 10
0.0
 20
0.0
 11
279.4
 21
215.9
 12
0.0
 22
0.0
 32
0.0
 14
0.0
 24
0.0
 34
0.0
 15
279.4
 25
215.9
 35
0.0
146
0.0
 13
0.0
 23
0.0
 33
0.0
 16
1.0
 26
0.0
 36
0.0
 17
0.0
 27
1.0
 37
0.0
 76
     0
330
1F
331
29
  0
MLINESTYLE
  5
18
102
{ACAD_REACTORS
330
17
102
}
330
17
100
AcDbMlineStyle
  2
Standard
 70
     0
  3

 62
   256
 51
90.0
 52
90.0
 71
     2
 49
0.5
 62
   256
  6
BYLAYER
 49
-0.5
 62
   256
  6
BYLAYER
  0
ACDBPLACEHOLDER
  5
F
102
{ACAD_REACTORS
330
E
102
}
330
E
  0
SCALE
  5
48
102
{ACAD_REACTORS
330
47
102
}
330
47
100
AcDbScale
 70
     0
300
1:1
140
1.0
141
1.0
290
     1
  0
SCALE
  5
49
102
{ACAD_REACTORS
330
47
102
}
330
47
100
AcDbScale
 70
     0
300
1:2
140
1.0
141
2.0
290
     0
  0
SCALE
  5
4A
102
{ACAD_REACTORS
330
47
102
}
330
47
100
AcDbScale
 70
     0
300
1:4
140
1.0
141
4.0
290
     0
  0
SCALE
  5
4B
102
{ACAD_REACTORS
330
47
102
}
330
47
100
AcDbScale
 70
     0
300
1:5
140
1.0
141
5.0
290
     0
  0
SCALE
  5
4C
102
{ACAD_REACTORS
330
47
102
}
330
47
100
AcDbScale
 70
     0
300
1:8
140
1.0
141
8.0
290
     0
  0
SCALE
  5
4D
102
{ACAD_REACTORS
330
47
102
}
330
47
100
AcDbScale
 70
     0
300
1:10
140
1.0
141
10.0
290
     0
  0
SCALE
  5
4E
102
{ACAD_REACTORS
330
47
102
}
330
47
100
AcDbScale
 70
     0
300
1:16
140
1.0
141
16.0
290
     0
  0
SCALE
  5
4F
102
{ACAD_REACTORS
330
47
102
}
330
47
100
AcDbScale
 70
     0
300
1:20
140
1.0
141
20.0
290
     0
  0
SCALE
  5
50
102
{ACAD_REACTORS
330
47
102
}
330
47
100
AcDbScale
 70
     0
300
1:30
140
1.0
141
30.0
290
     0
  0
SCALE
  5
51
102
{ACAD_REACTORS
330
47
102
}
330
47
100
AcDbScale
 70
     0
300
1:40
140
1.0
141
40.0
290
     0
  0
SCALE
  5
52
102
{ACAD_REACTORS
330
47
102
}
330
47
100
AcDbScale
 70
     0
300
1:50
140
1.0
141
50.0
290
     0
  0
SCALE
  5
53
102
{ACAD_REACTORS
330
47
102
}
330
47
100
AcDbScale
 70
     0
300
1:100
140
1.0
141
100.0
290
     0
  0
SCALE
  5
54
102
{ACAD_REACTORS
330
47
102
}
330
47
100
AcDbScale
 70
     0
300
2:1
140
2.0
141
1.0
290
     0
  0
SCALE
  5
55
102
{ACAD_REACTORS
330
47
102
}
330
47
100
AcDbScale
 70
     0
300
4:1
140
4.0
141
1.0
290
     0
  0
SCALE
  5
56
102
{ACAD_REACTORS
330
47
102
}
330
47
100
AcDbScale
 70
     0
300
8:1
140
8.0
141
1.0
290
     0
  0
SCALE
  5
57
102
{ACAD_REACTORS
330
47
102
}
330
47
100
AcDbScale
 70
     0
300
10:1
140
10.0
141
1.0
290
     0
  0
SCALE
  5
58
102
{ACAD_REACTORS
330
47
102
}
330
47
100
AcDbScale
 70
     0
300
100:1
140
100.0
141
1.0
290
     0
  0
SCALE
  5
59
102
{ACAD_REACTORS
330
47
102
}
330
47
100
AcDbScale
 70
     0
300
1/128" = 1'-0"
140
0.0078125
141
12.0
290
     0
  0
SCALE
  5
5A
102
{ACAD_REACTORS
330
47
102
}
330
47
100
AcDbScale
 70
     0
300
1/64" = 1'-0"
140
0.015625
141
12.0
290
     0
  0
SCALE
  5
5B
102
{ACAD_REACTORS
330
47
102
}
330
47
100
AcDbScale
 70
     0
300
1/32" = 1'-0"
140
0.03125
141
12.0
290
     0
  0
SCALE
  5
5C
102
{ACAD_REACTORS
330
47
102
}
330
47
100
AcDbScale
 70
     0
300
1/16" = 1'-0"
140
0.0625
141
12.0
290
     0
  0
SCALE
  5
5D
102
{ACAD_REACTORS
330
47
102
}
330
47
100
AcDbScale
 70
     0
300
3/32" = 1'-0"
140
0.09375
141
12.0
290
     0
  0
SCALE
  5
5E
102
{ACAD_REACTORS
330
47
102
}
330
47
100
AcDbScale
 70
     0
300
1/8" = 1'-0"
140
0.125
141
12.0
290
     0
  0
SCALE
  5
5F
102
{ACAD_REACTORS
330
47
102
}
330
47
100
AcDbScale
 70
     0
300
3/16" = 1'-0"
140
0.1875
141
12.0
290
     0
  0
SCALE
  5
60
102
{ACAD_REACTORS
330
47
102
}
330
47
100
AcDbScale
 70
     0
300
1/4" = 1'-0"
140
0.25
141
12.0
290
     0
  0
SCALE
  5
61
102
{ACAD_REACTORS
330
47
102
}
330
47
100
AcDbScale
 70
     0
300
3/8" = 1'-0"
140
0.375
141
12.0
290
     0
  0
SCALE
  5
62
102
{ACAD_REACTORS
330
47
102
}
330
47
100
AcDbScale
 70
     0
300
1/2" = 1'-0"
140
0.5
141
12.0
290
     0
  0
SCALE
  5
63
102
{ACAD_REACTORS
330
47
102
}
330
47
100
AcDbScale
 70
     0
300
3/4" = 1'-0"
140
0.75
141
12.0
290
     0
  0
SCALE
  5
64
102
{ACAD_REACTORS
330
47
102
}
330
47
100
AcDbScale
 70
     0
300
1" = 1'-0"
140
1.0
141
12.0
290
     0
  0
SCALE
  5
65
102
{ACAD_REACTORS
330
47
102
}
330
47
100
AcDbScale
 70
     0
300
1-1/2" = 1'-0"
140
1.5
141
12.0
290
     0
  0
SCALE
  5
66
102
{ACAD_REACTORS
330
47
102
}
330
47
100
AcDbScale
 70
     0
300
3" = 1'-0"
140
3.0
141
12.0
290
     0
  0
SCALE
  5
67
102
{ACAD_REACTORS
330
47
102
}
330
47
100
AcDbScale
 70
     0
300
6" = 1'-0"
140
6.0
141
12.0
290
     0
  0
SCALE
  5
68
102
{ACAD_REACTORS
330
47
102
}
330
47
100
AcDbScale
 70
     0
300
1'-0" = 1'-0"
140
12.0
141
12.0
290
     0
  0
ENDSEC
  0
EOF
